Cifra Club

Aprenda

Eons

311

Tab de baixo: Versão 2
Album: Soundsystem (1997)
Bassist: P-Nut
Tuning: B-E-A-D-G


Verse 1:                                                         ____
G|--------------------------------------------------------------|    \
D|--------------------------------------------------------------|     \ 
A|--------------------------------------------------------------|      \
E|--0-0-0-0-0--0-0-4-0-0-4-0-0-5--0-0-0-0-0--0-0-4-0-0-4-0-0-5--|       \
B|--------------------------------------------------------------|        \
                                                                          (x3)
G|--------------------------------------------------------------|        /
D|--------------------------------------------------------------|       /
A|--------------------------------------------------------------|      /
E|--0-0-0-0-0--0-0-4-0-0-3-0-0-2--0-0-0-0-0--0-0-4-0-0-3-0-0-2--|     /
B|--------------------------------------------------------------|____/


Pre-Chorus:
G|----------------------|
D|----------------------|
A|----------------------|
E|--1h3--1-3--1h3--1-3--|
B|----------------------|


Break:
G|-----------------------------------------------------------|
D|-----------------------------------------------------------|
A|-----------------------------------------------------------|
E|------------------3~---------------------------------------|
B|--0~------3~--------------0~------0~------3~------0~---1~--|


Verse 2:                                                         ____
G|--------------------------------------------------------------|    \
D|--------------------------------------------------------------|     \ 
A|--------------------------------------------------------------|      \
E|--0-0-0-0-0--0-0-4-0-0-4-0-0-5--0-0-0-0-0--0-0-4-0-0-4-0-0-5--|       \
B|--------------------------------------------------------------|        \
                                                                          (x2)
G|--------------------------------------------------------------|        /
D|--------------------------------------------------------------|       /
A|--------------------------------------------------------------|      /
E|--0-0-0-0-0--0-0-4-0-0-3-0-0-2--0-0-0-0-0--0-0-4-0-0-3-0-0-2--|     /
B|--------------------------------------------------------------|____/


Pre-Chorus:
G|----------------------|
D|----------------------|
A|----------------------|
E|--1h3--1-3--1h3--1-3--|
B|----------------------|


Outro:
G|--------------------------------------------------------------|
D|--------------------------------------------------------------|
A|--------------------------------------------------7~----------|
E|--2~------5~------0~--------------2~------5~------------------|
B|--------------------------3~------------------------------3~--|

G|--------------------------------------------------------------|
D|--------------------------------------------------------------|
A|------------------7~------------------------------7~----------|
E|--2~------5~----------------------2~------5~------------------|
B|--------------------------3~------------------------------3~--|

G|--------------------------------------------------------------|
D|--------------------------------------------------------------|
A|--------------------------------------------------------------|
E|--2~------5~------0~--------------2~------5~------0~----------|
B|--------------------------3~------------------------------3~--|

G|--------------------------------------------------------------|
D|--------------------------------------------------------------|
A|------------------7~------------------------------------------|
E|--2~------5~----------------------2~------5~------0~----------|
B|--------------------------3~------------------------------3~--|
Composição de Chad Sexton / Nicholas Hexum
21 exibições

0 comentários

Ver todos os comentários

Conseguiu tocar?

0 Tocaram 0 Ainda não

Grave um vídeo tocando Eons e nos envie!

00:00 / 00:00
outros vídeos desta música
repetir qualidade Automático
Outros vídeos desta música
00:00 / 00:00
Automático

Cifra Club Pro

Aproveite o Cifra Club com benefícios exclusivos e sem anúncios
Cifra Club Pro
Aproveite o Cifra Club com benefícios exclusivos e sem anúncios
OK