Cifra Club

Aprenda

Na Fé

Adão Negro

Cifra: Principal (violão e guitarra)
tom: A
Riff Inacial:
Parte 1
E|----------7-------|-----------------|
B|---7-9-10--10-9-7-|-----------------|
G|-9----------------|---6-7-8-9-7-6-9-|
D|------------------|-9---------------|
A|------------------|-----------------|
E|------------------|-----------------|

Parte 2
E|----------7-------|-------------------|
B|---7-9-10--10-9-7-|-------------------|
G|-9----------------|---6-7-8-9-7-6~7---|
D|------------------|-9---------------7-|
A|------------------|-------------------|
E|------------------|-------------------|

A                                   Bm
Vou levando a vida assim, mas sem desanimar
             A               Bm
(Na Fé my brother! Na Fé my brother!)
A                                        Bm
Eu vou jogando o jogo assim, mas sei que vou ganhar
            A               Bm
(Na Fé my brother! Na Fé my brother!)
A                                Bm
Saio do que é ruim pra sorte me ajudar
             A              Bm
(Na Fé my brother! Na Fé my brother!)
A                                       Bm
a fé no bem que tenho em mim, que nunca vai faltar
             A                Bm
(Na Fé my brother! Na Fé my brother!)
 D                       E
Sou filho de Deus, meu escudo minha redenção.
                C#m                               Bm
é quem me dá o toque pra essa vida não me dar rasteira não
D                   E
O mundo é meu bate forte o meu coração.
                 C#m
fazer da vida um sonho não é facil
                     D
e é melhor não dar bobeira não
        E
e a caminha não tem fim.

Riff Final:
Parte 1
E|-14-12------------|------------------------------|
B|-------10-14-12---|---12-15-15-15-15-15-14-12-14-|
G|----------------9-|-9----------------------------|
D|------------------|------------------------------|
A|------------------|------------------------------|
E|------------------|------------------------------|

Parte 2
E|-14-12------------|------------------------------|
B|-------10-14-12---|---12-15-15-15-15-15-14-12-10-|
G|----------------9-|-9----------------------------|
D|------------------|------------------------------|
A|------------------|------------------------------|
E|------------------|------------------------------|
Composição de Adão Negro
Colaboração e revisão:
  • Willian Mrques
1.345 exibições
    • ½ Tom
    • A
    • Bb
    • B
    • C
    • Db
    • D
    • Eb
    • E
    • F
    • F#
    • G
    • Ab
  • Adicionar à lista

    0 comentários

    Ver todos os comentários

    Conseguiu tocar?

    1 Tocaram 0 Ainda não

    Grave um vídeo tocando Na Fé e nos envie!

    00:00 / 00:00
    Outros vídeos desta música
    Repetir Qualidade Automático
    Outros vídeos desta música
    00:00 / 00:00
    Automático

    Cifra Club Pro

    Aproveite o Cifra Club com benefícios exclusivos e sem anúncios
    Cifra Club Pro
    Aproveite o Cifra Club com benefícios exclusivos e sem anúncios
    OK