Notificações Amigos pendentes

      Aero Zeppelim

      Solo de Baixo

      1.629 exibições
      |----------------------|
      |----------------------|
      |------3h5-------------|
      |0-0-0-----5-5-5-3-3-3-| [3x]
      
      |----------------------|
      |----------2-----------|
      |------3h5---3-2b~~~~--|
      |0-0-0-----------------| [2x]
      
      |----------------------|
      |----------0-0-0-------|
      |------3h5---3-2-------|
      |0-0-0-----------------| [1x]
      
      |-----------------------|
      |-----------------------|
      |------3-3-3------------|
      |-3-3-3------5-5-5-3-3-3|
      
      |----------------------|
      |----------------------|
      |-------3-5-3----------|
      |-0-3-5-------5b~~~~~--|
      
      |-----------------------------------------------|
      |-----------------------------------------------|
      |-8-8-8-10-8------------------------------------|
      |------------10-10-10-12-10-7-7-7-9-7-4-4-4-6-4-|

      Comentários 0

      140 .
      140 cancelar

      conseguiu tocar?

      covers

      Grave um vídeo tocando Solo de Baixo e mande pra gente!

      Ex.: http://www.youtube.com/watch?v=0IvSvIwGdwk
      ver covers de outras músicas »
      0:00 / 0:00

      Capítulos

        1 versão de baixo exibições contribuição e correção
        play/pausefechar subir/descer velocidade
        6ª corda E5ª corda A4ª corda D3ª corda G2ª corda B1ª corda E
          acordes
          publicidade
          fechar
          ok