Cifra Club

Amor Falso

Aldair Playboy

Cifra: Principal (violão e guitarra)
exibições 341.756
Tom: C#m
[Intro 2x]  A  B  C#m  E

[TAB - Solo da introdução]

Parte 1 de 4
E|---------------------9-----------9-------------------|
B|-12-12-12-12-12-9-12---12-----12---12----------------|
G|--------------------------9-9---------11-------------|
D|-----------------------------------------------------|
A|-----------------------------------------------------|
E|-----------------------------------------------------|

Parte 2 de 4
E|-------12-11-9---------------------------------------|
B|----12---------12-9----------------------------------|
G|-11--------------------------------------------------|
D|-----------------------------------------------------|
A|-----------------------------------------------------|
E|-----------------------------------------------------|

Parte 3 de 4
E|---------------------9-----------9-------------------|
B|-12-12-12-12-12-9-12---12-----12---12----------------|
G|--------------------------9-9---------11-------------|
D|-----------------------------------------------------|
A|-----------------------------------------------------|
E|-----------------------------------------------------|

Parte 4 de 4
E|-------12-11-9----9----------------------------------|
B|----12---------12------------------------------------|
G|-11--------------------------------------------------|
D|-----------------------------------------------------|
A|-----------------------------------------------------|
E|-----------------------------------------------------|

[Primeira parte]

A              B
  Abre o jogo,   acabou
C#m
    Pra quê esconder esse falso amor?
A             B
  Eu confiei,   me entreguei
C#m
    Meu coração logo se machucou

[Pré-refrão]

       A
Noite do meu lado
 B          C#m
Fico aqui imaginando
                A
Mas como pude cair
       B         C#m
Nessa farsa de amor?

[Refrão]

                  A
E parabéns pra você
                 B
Que me fez entender
              C#m         E
Que minha paixão não é você
     A
Obrigado
            B             C#m
Por demonstrar esse amor falso

                  A
E parabéns pra você
                 B
Que me fez entender
              C#m         E
Que minha paixão não é você
     A
Obrigado
            B             C#m
Por demonstrar esse amor falso

[Solo]  A  B  C#m  E  A  B  C#m

[TAB - Solo]

Parte 1 de 4
E|---------------------9--------------9----------------|
B|-12-12-12-12-12-9-12---12---12---12---12----12----12-|
G|--------------------------9----9---------11----11----|
D|-----------------------------------------------------|
A|-----------------------------------------------------|
E|-----------------------------------------------------|

Parte 2 de 4
E|-12-11-9h11p9----------------------------------------|
B|--------------12-9-----------------------------------|
G|-----------------------------------------------------|
D|-----------------------------------------------------|
A|-----------------------------------------------------|
E|-----------------------------------------------------|

Parte 3 de 4
E|---------------------9--------------9----------------|
B|-12-12-12-12-12-9-12---12---12---12---12----12----12-|
G|--------------------------9----9---------11----11----|
D|-----------------------------------------------------|
A|-----------------------------------------------------|
E|-----------------------------------------------------|

Parte 4 de 4
E|-12-11-9----9----------------------------------------|
B|---------12---12-9h12p9------------------------------|
G|------------------------11-9-------------------------|
D|-----------------------------------------------------|
A|-----------------------------------------------------|
E|-----------------------------------------------------|

[Primeira parte]

A              B
  Abre o jogo,   acabou
C#m
    Pra quê esconder esse falso amor?
A             B
  Eu confiei,   me entreguei
C#m
    Meu coração logo se machucou

[Pré-refrão]

       A
Noite do meu lado
 B          C#m
Fico aqui imaginando
                A
Mas como pude cair
       B         C#m
Nessa farsa de amor?

[Refrão]

                  A
E parabéns pra você
                 B
Que me fez entender
              C#m         E
Que minha paixão não é você
     A
Obrigado
            B             C#m
Por demonstrar esse amor falso

                  A
E parabéns pra você
                 B
Que me fez entender
              C#m         E
Que minha paixão não é você
     A
Obrigado
            B             C#m
Por demonstrar esse amor falso

                  A
E parabéns pra você
                 B
Que me fez entender
              C#m         E
Que minha paixão não é você
     A
Obrigado
            B             C#m
Por demonstrar esse amor falso

                  A
E parabéns pra você
                 B
Que me fez entender
              C#m         E
Que minha paixão não é você
     A
Obrigado
            B             C#m
Por demonstrar esse amor falso

[Solo Final]

(A  B  C#m  E)3x

 A  B  C#m

[TAB - Solo Final]

Parte 1 de 8
E|---------------------9--------------9----------------|
B|-12-12-12-12-12-9-12---12---12---12---12----12----12-|
G|--------------------------9----9---------11----11----|
D|-----------------------------------------------------|
A|-----------------------------------------------------|
E|-----------------------------------------------------|

Parte 2 de 8
E|-12-11-9-7h9p7---------------------------------------|
B|---------------9-------------------------------------|
G|-----------------------------------------------------|
D|-----------------------------------------------------|
A|-----------------------------------------------------|
E|-----------------------------------------------------|

Parte 3 de 8
E|---------------------9--------------9----------------|
B|-12-12-12-12-12-9-12---12---12---12---12----12----12-|
G|--------------------------9----9---------11----11----|
D|-----------------------------------------------------|
A|-----------------------------------------------------|
E|-----------------------------------------------------|

Parte 4 de 8
E|-12-11-9h11p9----------------------------------------|
B|--------------12-9-----------------------------------|
G|-----------------------------------------------------|
D|-----------------------------------------------------|
A|-----------------------------------------------------|
E|-----------------------------------------------------|

Parte 5 de 8
E|---------------------9--------------9----------------|
B|-12-12-12-12-12-9-12---12---12---12---12----12----12-|
G|--------------------------9----9---------11----11----|
D|-----------------------------------------------------|
A|-----------------------------------------------------|
E|-----------------------------------------------------|

Parte 6 de 8
E|-12-11-9-7h9p7---------------------------------------|
B|---------------9-------------------------------------|
G|-----------------------------------------------------|
D|-----------------------------------------------------|
A|-----------------------------------------------------|
E|-----------------------------------------------------|

Parte 7 de 8
E|---------------------9--------------9----------------|
B|-12-12-12-12-12-9-12---12---12---12---12----12----12-|
G|--------------------------9----9---------11----11----|
D|-----------------------------------------------------|
A|-----------------------------------------------------|
E|-----------------------------------------------------|

Parte 8 de 8
E|-12-11-9h11p9----9-----------------------------------|
B|--------------12-------------------------------------|
G|-----------------------------------------------------|
D|-----------------------------------------------------|
A|-----------------------------------------------------|
E|-----------------------------------------------------|
Acordes para:

    0 comentários

      mostrar mais comentários

      Conseguiu tocar?

      47tocaram38ainda não

      Grave um vídeo tocando Amor Falso e mande pra gente!

      00:00 / 00:00
      outros vídeos desta música
      repetirqualidadeAutomático
      Outro vídeos desta música
        00:00 / 00:00
        OK