Cifra Club

Aprenda

Eu Quero Mais de Ti

Aline Leme

Cifra: Principal (violão e guitarra)
Tom: Eb (forma dos acordes no tom de B) Capotraste na 4ª casa
[Intro]

    G       Em      C     D
E|----------------------------|
B|--0---1-0-----1-0-----0-----|
G|--0-------0-------0-----2---|
D|--0-------2-------2-----4---|
A|------------------3-----5---|
E|--3-------0-----------------|

G                     C                Em    D
   E quando a noite chega e a luz se ausenta
G                  C                        Em    D
   Ele enfeita os céus com as estrelas mais belas 
G                         C                   Em   
   Eu preciso estar mais perto, sentir Tua presença 
           C                D     C/E
Pois só assim Tua paz faz morada aqui 

[Refrão]

         C
Eu quero mais 
         Em
Eu quero mais 
         C
Eu quero mais 
         Em
Eu quero mais

         G            Em              G             Em    D  
E|-----------------------------------------------------------|
B|-1-0-1--------1-0-1-----------1-0-1---------1-0-1-------3--|
G|-------0------------0---------------0-------------0-----2--|
D|---------0------------2---------------0-------------2------|
A|-----------2------------2---------------2-------------2----|
E|-------3------------0---------------3-------------0--------|

      C                      Em
Não mereço esse amor que de graça me alcançou 
           C                        Em
Tua misericórdia trouxe vida em abundância
         C                        Em
Tantas guerras enfrentei, mas com elas aprendi
       C         G11/B  Am              D 
Que se eu morrer pra    mim irei te encontrar 

[Refrão]

         C
Eu quero mais 
         Em
Eu quero mais 
         C
Eu quero mais 
         Em
Eu quero mais

[Solo]

    C    D     Em     D  C   D       Em        D
E|-------3p2-3----5/7--------3--3p2-3---------------------|
B|---5---------5-----------5------------------------------|
G|------------------------------------4--4/2-0-2----------|
D|--5--------------------5-------------------------5-4-5--|
A|--------------------------------------------------------|
E|--------------------------------------------------------|

     C                                           D   
Eu quero sentar do Seu lado e contemplar a brisa da manhã
   Em                                         Am 
Deitar em Seu colo e sentir o que eu nunca senti
                  Em
A Tua paz me invadir    
A Tua paz me invadir 
      C                                D
Te contar meus segredos e ouvir da Tua boca
   Em                                 Am 
Chegou o tempo de sorrir, só de sorrir 
                     Em
Por isso eu não desisti    
          D               C
Sei que esteve todo tempo aqui

[Refrão Final]

G           C
   Eu quero mais 
         Em
Eu quero mais 
         C
Eu quero mais de Ti
         Em
Eu quero mais
C             Em
     Eu quero mais
C    G
     Mais
Composição de Aline Leme
Colaboração e revisão:
  • Mateus Assunção
5 exibições
    • ½ Tom
    • A
    • Bb
    • B
    • C
    • Db
    • D
    • Eb
    • E
    • F
    • F#
    • G
    • Ab
  • Adicionar à lista

    0 comentários

    Mostrar mais comentários

    Conseguiu tocar?

    0 Tocaram 0 Ainda não

    Grave um vídeo tocando Eu Quero Mais de Ti e mande pra gente!

    00:00 / 00:00
    outros vídeos desta música
    repetir qualidade Automático
    Outros vídeos desta música
    00:00 / 00:00
    Automático
    OK