Cifra Club

Baracaturana

Aterciopelados

Cifra: Principal (violão e guitarra)
Selo Cifra Club: esta cifra foi revisada para atender aos critérios oficiais da nossa Equipe de Qualidade.
tom: Em
Intro:


Repetir:

E|---------------------------------|
B|---------------------------------|
G|---------------------------------|
D|-----------2-------7-6-5-4~~~~~--|
A|--0---0-3------------------------|



Acompañamiento:

Se repiten estas dos figuras:

Fig. A
E|---------------------------------|
B|---------------------------------|
G|---------------------------------|
D|-----------2----2-2--2-0---------|
A|--0---0-3-----------------3------|

Fig. B
E|---------------------------------|
B|---------------------------------|
G|---------------------------------|
D|--2-2--2-0--------7-6-5-4--------|
A|-----------3--0------------------|





En estas partes es nada mas jugar un poco
con el ritmo, hacer algo funky:

         B             B
y te marchaste con el mono
      B         B           Em
del Jean, el overall y la chaqueta


  Am
A  A  A  A  A 
  Em
A  A  A  A  A 
            B         Em
A  A  A  A  A  A  A  A  A 


    B         B    B           B
por eso tu eres garulla ,retrechera,
    B     B       B         B         B             Em
aveja, bergaja, fulera, guaricha, baracunatana, cucharamì
    B            Em
baracunata, baracunatana
                    B
y con el mono de la moto

eran nueve, que tenìa
               Bm
y le ponìan serenata
00:00 / 00:00
Outros vídeos desta música
Repetir
Outros vídeos desta música
21 exibições
    • ½ Tom
    • Am
    • Bbm
    • Bm
    • Cm
    • C#m
    • Dm
    • Ebm
    • Em
    • Fm
    • F#m
    • Gm
    • G#m
  • Adicionar à lista

Afinação da cifra

Afinador online

    0 comentários

    Ver todos os comentários

    Conseguiu tocar?

    0 Tocaram 0 Ainda não

    Grave um vídeo tocando Baracaturana e nos envie!

    Toque também

    1. Imagem do artista Fito Páez 11 y 6 Fito Páez
    2. Imagem do artista Los Fabulosos Cadillacs Vasos Vacíos Los Fabulosos Cadillacs
    3. Imagem do artista Caifanes Viento Caifanes
    4. Imagem do artista Ekhymosis Solo Ekhymosis

    Entre para o Cifra Club PRO

    Tenha acesso a benefícios exclusivos no App e no Site

    • Chega de anúncios

    • Mais recursos no app do Afinador

    • Atendimento Prioritário

    • Aumente seu limite de lista

    • Ajude a produzir mais conteúdo

    00:00 / 00:00

    Cifra Club Pro

    Aproveite o Cifra Club com benefícios exclusivos e sem anúncios
    Cifra Club Pro
    Aproveite o Cifra Club com benefícios exclusivos e sem anúncios
    OK