Cifra Club

Nada Que Ver

Aterciopelados

Cifra: Principal (violão e guitarra)
Selo Cifra Club: esta cifra foi revisada para atender aos critérios oficiais da nossa Equipe de Qualidade.
tom: D
ese macho que es lo que se ha creido 

G|------------------------------- 
D|------------------------------- 
A|--7----5----3----5-------------   (x4) 
E|----7----5----3----5----------- 

a la legua supe lo que tramaba 

-------------------------------- 
-------------------------------- 
---7-7-7-5-5-5-3-3-3-5-5-5------   (x3) 
-------------------------------- 

 de caceria estaba 

-------------------------------- 
-------------------------------- 
---7-7-7-5-5-5-3---------------- 
-------------------------------- 

no se me acerque mi don conozco su calaña 

-------------------------------------- 
-------------------------------------- 
----------5-5-5-5-3-3-3-3-5-5-5-5-----  (x2) 
--3-3-3-3----------------------------- 

parece hambiento el senor, yo no ..... 

---------------------------------------------------------- 
---------------------------------------------------------- 
----------5-5-5-5---------3-3-3-3-5-5-5-5-3-3-3-3--------- 
--3-3-3-3---------0-0-0-0-------------------------3-3-3-3- 

se repite todo nuevamente 
con esto la sacas solo ritmo 
made in latinoamerica
00:00 / 00:00
Outros vídeos desta música
Repetir
Outros vídeos desta música
474 exibições
    • ½ Tom
    • A
    • Bb
    • B
    • C
    • Db
    • D
    • Eb
    • E
    • F
    • F#
    • G
    • Ab
  • Adicionar à lista

Afinação da cifra

Afinador online

    0 comentários

    Ver todos os comentários

    Conseguiu tocar?

    0 Tocaram 0 Ainda não

    Grave um vídeo tocando Nada Que Ver e nos envie!

    Toque também

    1. Imagem do artista Fito Páez 11 y 6 Fito Páez
    2. Imagem do artista Los Fabulosos Cadillacs Vasos Vacíos Los Fabulosos Cadillacs
    3. Imagem do artista Caifanes Afuera Caifanes
    4. Imagem do artista Ekhymosis Solo Ekhymosis

    Entre para o Cifra Club PRO

    Tenha acesso a benefícios exclusivos no App e no Site

    • Chega de anúncios

    • Mais recursos no app do Afinador

    • Atendimento Prioritário

    • Aumente seu limite de lista

    • Ajude a produzir mais conteúdo

    00:00 / 00:00

    Cifra Club Pro

    Aproveite o Cifra Club com benefícios exclusivos e sem anúncios
    Cifra Club Pro
    Aproveite o Cifra Club com benefícios exclusivos e sem anúncios
    OK