Cifra Club

Te Juro Que No

Aterciopelados

Cifra: Principal (violão e guitarra)
Selo Cifra Club: esta cifra foi revisada para atender aos critérios oficiais da nossa Equipe de Qualidade.
tom: F
intro 

E|---------------------------------------------------- 
A|---------------------------------------------------- (x2) 
D|---------------------------------------------------- 
G|-0--0--0--0-5--5--5--5--0-1--1--1--1-0--0--0--0----- 

estoy seca tengo algo en.... 

E|---------------------------------------------------- 
A|---------------------------------------------------- (x2) 
D|---------------------------------------------------- 
G|-0--0--0--0-5--5--5--5--0-1--1--1--1-0--0--0--0----- 

solo recuerdo con otra te vi.....amacizados.... 

------------------------------------------------------ 
------------------------------------------------------   (x2) 
-----------------5-5-5-5------------------------------ 
-0-0-0-0-1-1-1-1---------0-0-------------------------- 

te juro que no que ..... 

E|------------------------------------------------------------- 
A|------------------------------------------------------------- (x2) 
D|------------------------------------------------------------- 
G|-0-0-0-0-0-0-5-5-5-5-5-5-5-1-1-1-1-1-1-1-1-0-0-0-0-0-0-0----- 

dame un nuevo chance ..... 

---------------------------------------------------------------------- 
---------------------------------------------------------------------- 
-------------------------5-5-5-5-5-5---------------------------------- 
-0-0-0-0-0-0-1-1-1-1-1-1-------------0-0-0-0-0-0---------------------- 

te juro que no que ..... 

E|------------------------------------------------------------- 
A|------------------------------------------------------------- (x2) 
D|------------------------------------------------------------- 
G|-0-0-0-0-0-0-5-5-5-5-5-5-5-1-1-1-1-1-1-1-1-0-0-0-0-0-0-0----- 

solo 

E|---------------------------------------------------- 
A|---------------------------------------------------- (x2) 
D|---------------------------------------------------- 
G|-0--0--0--0-5--5--5--5--0-1--1--1--1-0--0--0--0----- 

me llamaron a contar.... 

E|---------------------------------------------------- 
A|---------------------------------------------------- (x2) 
D|---------------------------------------------------- 
G|-0--0--0--0-5--5--5--5--0-1--1--1--1-0--0--0--0----- 

solo recuerdo con otra te vi.... 

------------------------------------------------------ 
------------------------------------------------------   (x2) 
-----------------5-5-5-5------------------------------ 
-0-0-0-0-1-1-1-1---------0-0-------------------------- 

te juro que no que ..... 

E|------------------------------------------------------------- 
A|------------------------------------------------------------- (x2) 
D|------------------------------------------------------------- 
G|-0-0-0-0-0-0-5-5-5-5-5-5-5-1-1-1-1-1-1-1-1-0-0-0-0-0-0-0----- 

me pase de copas.... 

E|---------------------------------------------------- 
A|---------------------------------------------------- 
D|------------------------0-3--3--3--3---------------- 
G|-0--0--0--0-1--1--1--1---------------0--0--0--0----- 

te juro que no que ..... 

E|------------------------------------------------------------- 
A|------------------------------------------------------------- (x2) 
D|------------------------------------------------------------- 
G|-0-0-0-0-0-0-5-5-5-5-5-5-5-1-1-1-1-1-1-1-1-0-0-0-0-0-0-0----- 

luego viene esto 

------------------------------------------------------------ 
------------------------------------------------------------   (x2) 
-------------3--3--3--3------------------------------------- 
-0--0--0--0------------------------------------------------- 

no vayas a olvidar..... 

------------------------------------------------------------ 
------------------------------------------------------------   (x4) 
-------------3--3--3--3------------------------------------- 
-0--0--0--0------------------------------------------------- 

------------------- 
------------------- 
------------------- 
--0-0-0-0---------- 

te juro que no 

---------------------- 
---------------------- 
---------------------- 
-0-0-0-0-5-5-5-5------ 

fin
Outros vídeos desta música
590 exibições
    • ½ Tom
    • A
    • Bb
    • B
    • C
    • Db
    • D
    • Eb
    • E
    • F
    • F#
    • G
    • Ab
  • Adicionar à lista

Afinação da cifra

Afinador online

    0 comentários

    Ver todos os comentários

    Conseguiu tocar?

    0 Tocaram 0 Ainda não

    Grave um vídeo tocando Te Juro Que No e nos envie!

    Toque também

    1. Imagem do artista Fito Páez 11 y 6 Fito Páez
    2. Imagem do artista Los Fabulosos Cadillacs Vasos Vacíos Los Fabulosos Cadillacs
    3. Imagem do artista Caifanes Afuera Caifanes
    4. Imagem do artista Ekhymosis Solo Ekhymosis

    Entre para o Cifra Club PRO

    Tenha acesso a benefícios exclusivos no App e no Site

    • Chega de anúncios

    • Mais recursos no app do Afinador

    • Atendimento Prioritário

    • Aumente seu limite de lista

    • Ajude a produzir mais conteúdo

    Cifra Club Pro

    Aproveite o Cifra Club com benefícios exclusivos e sem anúncios
    Cifra Club Pro
    Aproveite o Cifra Club com benefícios exclusivos e sem anúncios
    OK