Cifra Club

Indecisão

Banda Encantu's

Cifra: Principal (violão e guitarra)
Tom: C
   Am    F            C         G
Indecisão pode me salvar de sofrer
                Am       F
Mas pode me impedir de amar
                  C       G
Mas o que tem que ser, será.

Intro: Am F C G (2x)

Solo: 

E|-----------3-3/5---8p7-5-------------8p7-5-----------3/5--------------------|
B|-----5-5-5---------------8-8--8-5-8~--------8-8--8-5------------------------|
G|---------------------------------------------------------5-5-5-7-7/9-7-5-7~-|
A|----------------------------------------------------------------------------|
D|----------------------------------------------------------------------------|
E|----------------------------------------------------------------------------|

Am                        F
Algo me diz que estou prestes a ser feliz
Am                      F                     C     G
Não adivinho, mas desconfio que vai ser com você, você.
           Am                        F                C       G
Eu fico estranha me arrepio eu sinto frio basta eu te ver, te ver.
    Am                     F                c       G
Não sei por que você mexe tanto com minha cabeça, cabeça.
   Am                      F                      C           G
Preciso urgentemente descobrir antes que eu enlouqueça, enlouqueça.
       Am                             F      C   G
Tua presença me faz bem tua ausência dói de ma____is.

  Am     F            C         G
Indecisão pode me salvar de sofrer
                Am       F
Mas pode me impedir de amar
                  C       G
Mas o que tem que ser, será.
  Am     F             C         G
Indecisão mande me salvar de sofrer
                 Am      F
Mas pode me impedir de amar
                  C       G
Mas o que tem que ser, será.

Intro: Am  F  C  G (2x)

Solo: 

E|----------3-3/5---8p7-5---------------8p7-5-----------3/5------------------|
B|-------5-----------------8-8--8-5-8~--------8-8--8-5-----------------------|
G|----------------------------------------------------------5-5-5-7-9-7-5-7~-|
A|---------------------------------------------------------------------------|
D|---------------------------------------------------------------------------|
E|---------------------------------------------------------------------------|

Am                        F
Algo me diz que estou prestes a ser feliz
Am                      F                     C     G
Não adivinho, mas desconfio que vai ser com você, você.
           Am                        F                C       G
Eu fico estranha me arrepio eu sinto frio basta eu te ver, te ver.
    Am                     F                c       G
Não sei por que você mexe tanto com minha cabeça, cabeça.
   Am                      F                      C           G
Preciso urgentemente descobrir antes que eu enlouqueça, enlouqueça.
       Am                             F      C   G
Tua presença me faz bem tua ausência dói de ma____is.

  Am     F            C         G
Indecisão pode me salvar de sofrer
                Am       F
Mas pode me impedir de amar
                  C       G
Mas o que tem que ser, será.
  Am     F             C         G
Indecisão mande me salvar de sofrer
                 Am      F
Mas pode me impedir de amar
                  C       G
Mas o que tem que ser, será. (2x) Todo o refrão

Final: Dm Am G F C
exibições 1.433
Acordes para:
    Colaboração e revisão:
    • Joao Victor

    0 comentários

    mostrar mais comentários

    Conseguiu tocar?

    0 tocaram 0 ainda não

    Grave um vídeo tocando Indecisão e mande pra gente!

    00:00 / 00:00
    outros vídeos desta música
    repetir qualidade Automático
    Outros vídeos desta música
    00:00 / 00:00
    Automático
    OK