Cifra Club

For All The Unheard

Bouncing Souls

Tab de baixo: Principal
Tabbed By : MeZMeK
e-mail: *

Tuning: Standard
 
(0:36)
G|----------------|----------------|----------------|----------------|
D|5-------4---5---|----------------|----------------|----------------|
A|----------------|----------------|5-------4---5---|----------------|
E|----------------|5---------------|----------------|3---------------|

G|----------------|----------------|----------------|
D|----------------|----------------|----------------|
A|----------------|----------------|----------------|
E|3-------2---3---|5---------------|----------------|

G|----------------|----------------|----------------|----------------|
D|----------------|----------------|----------------|----------------|
A|5-5-55555-5-5555|5-5-55555-5-5555|----------------|----------------| 2x
E|----------------|----------------|3-3-33333-3-3333|5-5-55555-5-5555|

G|----------------|----------------|----------------|----------------|
D|----------------|----------------|----------------|----------------|
A|----------------|--------2-2-4444|5-5-55554-4-5555|----------------|
E|3-3-33332-2-3333|5-5-5555--------|----------------|3-3-33333-3-3333|

G|----------------|----------------|----------------|
D|5-5-55554-4-5555|----------------|----------------|
A|----------------|----------------|----------------|
E|----------------|5-5-55555-5-5555|5-5-55555-5-5555|

G|----------------|----------------|----------------|----------------|
D|----------------|----------------|----------------|----------------|
A|5-5-55555-5-5555|5-5-55554-4-5555|----------------|----------------| 2x
E|----------------|----------------|3-3-33333-3-3333|5-5-55555-5-5555|

G|----------------|----------------|----------------|----------------|
D|--------7-7-7777|------------4-4-|5-5-55554-------|----------------|
A|5-5-5555--------|5-5-55557-------|------------775-|----------------|
E|----------------|----------------|----------------|5-5-55555-5-5555|

G|----------------|----------------|----------------|----------------|
D|--------7-7-7777|------------4-4-|5-5-55557---5---|----------------|
A|5-5-5555--------|5-5-55557-------|--------------7-|----------------|
E|----------------|----------------|----------------|5-5-55555-5-5555|

G|----------------|----------------|----------------|----------------|
D|----------------|----------------|----------------|----------------|
A|----------------|----------------|----------------|----------------| 2x
E|0-0-00002-2-3-3-|5-5-55555-5-5555|0-0-00002-2-3-3-|5-5-55555-5-5555|

G|----------------|----------------|----------------|----------------|
D|----------------|----------------|----------------|----------------|
A|5-5-55555-5-5555|5-5-55555-5-5555|----------------|----------------| 2x
E|----------------|----------------|3-3-33333-3-3333|5-5-55555-5-5555|

G|----------------|----------------|----------------|----------------|
D|----------------|----------------|----------------|----------------|
A|----------------|--------2-2-4444|5-5-55554-4-5555|----------------|
E|3-3-33332-2-3333|5-5-5555--------|----------------|3-3-33333-3-3333|

G|----------------|----------------|----------------|
D|----------------|----------------|----------------|
A|----------------|----------------|----------------|
E|3-3-33332-2-3333|5-5-55555-5-5555|5-5-55555-5-5555|

G|----------------|----------------|----------------|-----------------|
D|--------7-7-7777|----------------|5-5-55504-4-4440|2-2-2222/7-7-7777|
A|5-5-5555--------|5-5-55554-------|----------------|-----------------| 2x
E|----------------|------------7---|----------------|-----------------|

G|----------------|----------------|----------------|----------------|
D|--------7-7-7777|------------4-4-|5-5-55554-4-----|----------------|
A|5-5-5555--------|5-5-55557-7-----|------------775-|----------------|
E|----------------|----------------|----------------|5-5-55555-5-5555|

G|----------------|----------------|----------------|----------------|
D|--------7-7-7777|------------4-4-|5-5-55557---5---|----------------|
A|5-5-5555--------|5-5-55557-7-----|--------------7-|----------------|
E|----------------|----------------|----------------|5-5-55555-5-5555|

G|----------------|----------------|----------------|----------------|
D|----------------|----------------|----------------|----------------|
A|5---5--55-5-55--|5---5--55-5-55--|----------------|----------------| 2x
E|----------------|----------------|3---3--33-3-33--|5---5--55-5-55--|

G|----------------|----------------|----------------|----------------|
D|----------------|----------------|----------------|----------------|
A|5---------------|----------------|----------------|----------------| 3x
E|----------------|----------------|3---------------|5---------------|

G|----------------|----------------|----------------|----------------|
D|----------------|----------------|----------------|----------------|
A|5---------------|----------------|----------------|----------------|
E|----------------|----------------|3-3-3-3-3-3-3-3-|5-5-5-5-5-5-5-5-|

G|----------------|----------------|----------------|----------------|
D|----------------|----------------|----------------|----------------|
A|5-5-5-5-5-5-5-5-|5-5-5-5-5-5-5-5-|----------------|----------------| 7x
E|----------------|----------------|7-7-7-7-7-7-7-7-|5-5-5-5-5-5-5-5-|

G|----------------|----------------|----------------|----------------|
D|----------------|----------------|----------------|----------------|
A|5-5-5-5-5-5-5-5-|5-5-5-5-5-5-5-5-|----------------|----------------| 2x
E|----------------|----------------|3-3-3-3-3-3-3-3-|5-5-5-5-5-5-5-5-|

G|----------------|
D|----------------|
A|5---------------|
E|----------------|


| /  slide up
| \  slide down
| h  hammer-on
| p  pull-off
| ~  vibrato
| +  harmonic
| x  Mute note
===============================================================================
00:00 / 00:00
Outros vídeos desta música
Repetir
Outros vídeos desta música
Composição de The Bouncing Souls
170 exibições

0 comentários

Ver todos os comentários

Conseguiu tocar?

0 Tocaram 0 Ainda não

Grave um vídeo tocando For All The Unheard e nos envie!

Entre para oCifra Club PRO

Tenha acesso a benefícios exclusivos no App e no Site

  • Chega de anúncios

  • Prioridade de compra em lançamentos

  • Mais recursos no app do Afinador

  • Atendimento Prioritário

  • Descontos nos produtos Cifra Club

  • Ajude a produzir mais conteúdo

00:00 / 00:00

Cifra Club Pro

Aproveite o Cifra Club com benefícios exclusivos e sem anúncios
Cifra Club Pro
Aproveite o Cifra Club com benefícios exclusivos e sem anúncios
OK