Cifra Club

Fire Eyed Boy

Broken Social Scene

Cifra: Principal (violão e guitarra)
tom: D
Tabbed by: RYAN
Email: *

Tuning: Standard

The reference I used for this tab was the live lollapalooza 2006 recording. I think it's 
spot on. But maybe I'm wrong.

INTRO - play this however many times
e|-----------7~-------------------------7~----------------------7~-----------|
B|---------------------------------------------------------------------------|
G|-------/7-----7/9\7~---7/9\7~----/7--------7/9\7~--7-7h9p7h9---------------|
D|---------------------------------------------------------------------------|
A|---------------------------------------------------------------------------|
E|---------------------------------------------------------------------------|
THEN:  xWhatever
e|---------------------------------------------------------------------------|
B|---------------------------------------------------------------------------|
G|---9--7--6--6(*)--9---7---6---4--------------------------------|
D|---------------------------------------------------------------------------|
A|---------------------------------------------------------------------------|
E|---------------------------------------------------------------------------|
When you play this part the trick is to not lift your finger up and play with a loose slidey style.

Then play the intro again.

Then comes the drum solo thing at 2:56

Then some random wankery.

End on
e|--------5~---------------------------------------------------------------------|
B|--------5~---------------------------------------------------------------------|
G|-------------------------------------------------------------------------------|
D|--------4~---------------------------------------------------------------------|
A|--------5~---------------------------------------------------------------------|
E|-------------------------------------------------------------------------------|


| ~  Let Ring
| /  slide up
| \  slide down
| h  hammer-on
| p  pull-off
| ~  vibrato
| +  harmonic
| x  Mute note
===============================================================================
00:00 / 00:00
Outros vídeos desta música
Repetir
Outros vídeos desta música
Composição de Andrew Whiteman / Brendan Canning / Jason Collett / Justin Peroff / Kevin Drew
416 exibições
    • ½ Tom
    • A
    • Bb
    • B
    • C
    • Db
    • D
    • Eb
    • E
    • F
    • F#
    • G
    • Ab
  • Adicionar à lista

    0 comentários

    Ver todos os comentários

    Conseguiu tocar?

    0 Tocaram 0 Ainda não

    Grave um vídeo tocando Fire Eyed Boy e nos envie!

    Entre para oCifra Club PRO

    Tenha acesso a benefícios exclusivos no App e no Site

    • Chega de anúncios

    • Prioridade de compra em lançamentos

    • Mais recursos no app do Afinador

    • Atendimento Prioritário

    • Descontos nos produtos Cifra Club

    • Ajude a produzir mais conteúdo

    00:00 / 00:00

    Cifra Club Pro

    Aproveite o Cifra Club com benefícios exclusivos e sem anúncios
    Cifra Club Pro
    Aproveite o Cifra Club com benefícios exclusivos e sem anúncios
    OK