Cifra Club

Aprenda

Arc of Space

Bruce Dickinson

Cifra: Principal (violão e guitarra)
tom: A
Introdução solo
 
   Am  Am     G    D9    Am    Am   G     D9    Am  Am
E|---------------------|---------------5------|-------|
B|-5---5--6/8---6-5----|---5--5-6/8------6--5-|---3/5-|
G|-------------------7-|----------------------|-------|
D|---------------------|-7--------------------|-7-----|
A|---------------------|----------------------|-------|
E|---------------------|----------------------|-------|

    D9        Am  D9           Am   C              D
E|-------------|-----------------|--------------|-----------------------|
B|-------------|-------5/7-------|-5------------|-----------------------|
G|-7-7-7-4---5-|-7-7-7-----7--5--|---7--5-7p5---|-----5h7-5-------------|
D|-------------|-----------------|------------7-|-5-7-------7-5---5-5/7-|
A|-------------|-----------------|--------------|---------------7-------|
E|-------------|-----------------|--------------|-----------------------|


Am          G      D9     Am
There, on a lonely desert hilltop 
    G        D9     Am
The pilgrims huddle closer 
D             Am        D             Am
Waiting for a sign, the coming silver shrine 
    C                      D
The arc of space and time 

Am            G        D9    Am
Truth, oh, the truth is never clear 
   G     D9        Am
Perhaps again next year 
    D          Am    D                 Am
The hope lives on beneath the blazing sun 
C                   D
One day you'll come 

  F      G     Am    F      G        Am
E|------------------|--------------------
B|------------------|--------------------
G|------------------|--------------------
D|-3----------------|--3-----------------
A|-3----3-2---------|--3----3-2--3-5-3---
E|-1-1------5-3-5---|--1-1---------------

F     G       Am
In my heart I reach you 
F     G       Am
In my heart I reach out to you 
F     E       Am        G       F
In my heart I touch the face of god 
           E
In my dreams somehow... 

Solo
Acordes Am D9 G C G/B Am D9 G C G/B Am
        D9 G C G/B Am D9 E (ao refrão)

E|--------------------------------------------------------
B|--------------------------------5-----------------------
G|---------------4-5-5/7-5-4----5---5---7---5-------------
D|--------7----7-------------5--------5---5---------------
A|-7--7-7----7--------------------------------------------
E|--------------------------------------------------------

E|--------------------8p5-------------5-7-9-10-12---------
B|-5-6/8-8-8-6-5-6/8------6h8p6/5---8---------------------
G|--------------------------------7-----------------------
D|--------------------------------------------------------
A|--------------------------------------------------------
E|--------------------------------------------------------

E|-10-8-10--8-5/8-8h10-10-10------------------------------ 
B|----------------------------6/8-8-8/10-8-6-5-6-5--6-8-6-  
G|--------------------------------------------------------  
D|--------------------------------------------------------  
A|--------------------------------------------------------  
E|--------------------------------------------------------

F     G       Am
In my heart I reach you 
F     G       Am
In my heart I reach out to you 
F     E       Am        G       F
In my heart I touch the face of god
           E
It's all a dream... 

F     G       Am
In my heart I reach you 
F     G       Am
In my heart I reach out to you 
F     E       Am        G       F
In my heart I touch the face of god 
           E
It's all a dream, somehow... 

E|-----------------
B|-5-6-3-5-1-3-0---
G|---------------1-
D|-----------------
A|-----------------
E|-----------------

Am            G        D9    Am
Truth, oh, the truth is never clear 
   G     D9        Am
Perhaps again next year 
    D9         Am    D9                Am
The hope lives on beneath the blazing sun 
C                 D     Am
One day you'll come
Composição de Bruce Dickinson / Roy Z
28.723 exibições
    • ½ Tom
    • A
    • Bb
    • B
    • C
    • Db
    • D
    • Eb
    • E
    • F
    • F#
    • G
    • Ab
  • Adicionar à lista

    0 comentários

    Ver todos os comentários

    Conseguiu tocar?

    8 Tocaram 0 Ainda não

    Grave um vídeo tocando Arc of Space e nos envie!

    00:00 / 00:00
    outros vídeos desta música
    repetir qualidade Automático
    Outros vídeos desta música
    00:00 / 00:00
    Automático

    Cifra Club Pro

    Aproveite o Cifra Club com benefícios exclusivos e sem anúncios
    Cifra Club Pro
    Aproveite o Cifra Club com benefícios exclusivos e sem anúncios
    OK