Notificações Amigos pendentes

      Iron Maiden

      Fear Of The Dark

      1.462.324 exibições
      Tom: E
      Intro:
      
      (Parte 1)
      
      E|---------------------------------------------------
      B|---------------------------------------------------
      G|-7--7--------7--7--9--9--10--10--9--9--7--7--9--7--
      D|-------7--7----------------------------------------
      A|---------------------------------------------------
      E|---------------------------------------------------
      
      
      E|---------------------------------------------------
      B|-------------------------5--5--------------5-------
      G|-5--5--------5--5--7--7--------7--7--5--5-----5----
      D|-------5--5----------------------------------------
      A|---------------------------------------------------
      E|---------------------------------------------------
      
      
      E|---------------------------------------------------
      B|---------------------------------------------------
      G|-7--7--------7--7--9--9--10--10--9--9--7--7--9--7--
      D|-------7--7----------------------------------------
      A|---------------------------------------------------
      E|---------------------------------------------------
      
      
      E|---------------------------------------------------
      B|-------------------------5--5--------------5-------
      G|-5--5--------5--5--7--7--------7--7--5--5-----5----
      D|-------5--5----------------------------------------
      A|---------------------------------------------------
      E|---------------------------------------------------
      
      
      E|---------------------------------------------------
      B|---------------------------------------------------
      G|---------------------------------------------------
      D|-7--7--------7--7--9--9--10--10--9--9--7--7--9--7--
      A|-------7--7----------------------------------------
      E|---------------------------------------------------
      
      
      E|---------------------------------------------------
      B|---------------------------------------------------
      G|-------------------------4--4--------------4-------
      D|-5--5--------5--5--7--7--------7--7--5--5-----5----
      A|-------5--5----------------------------------------
      E|---------------------------------------------------
      
      
      E|---------------------------------------------------
      B|---------------------------------------------------
      G|---------------------------------------------------
      D|-7--7--------7--7--9--9--10--10--9--9--7--7--9--7--
      A|-------7--7----------------------------------------
      E|---------------------------------------------------
      
      
      E|---------------------------------------------------
      B|---------------------------------------------------
      G|-------------------------2--2----------------------
      D|-3--3--------3--3--5--5--------5--5--3--3/7--\3~~--
      A|-------3--3----------------------------------------
      E|---------------------------------------------------
      
      
      (Parte 1 - Guitarra Oitavada)
      
      E|---------------------------------------------------
      B|---------------------------------------------------
      G|---------------------------------------------------
      D|---------------------------------------------------
      A|-5--5--------5--5--7--7--8--8--7--7--5--5--7--5----
      E|-------5--5----------------------------------------
      
      
      E|---------------------------------------------------
      B|---------------------------------------------------
      G|---------------------------------------------------
      D|-------------------------2--2--------------2-------
      A|-3--3--------3--3--5--5--------5--5--3--3-----3----
      E|-------3--3----------------------------------------
      
      
      E|---------------------------------------------------
      B|---------------------------------------------------
      G|---------------------------------------------------
      D|---------------------------------------------------
      A|-5--5--------5--5--7--7--8--8--7--7--5--5--7--5----
      E|-------5--5----------------------------------------
      
      
      E|---------------------------------------------------
      B|---------------------------------------------------
      G|---------------------------------------------------
      D|-------------------------2--2--------------2-------
      A|-3--3--------3--3--5--5--------5--5--3--3-----3----
      E|-------3--3----------------------------------------
      
      
      E|---------------------------------------------------
      B|---------------------------------------------------
      G|---------------------------------------------------
      D|---------------------------------------------------
      A|-0--0--------0--0--2--2--3--3--2--2--0--0--2--0----
      E|-------0--0----------------------------------------
      
      
      E|---------------------------------------------------
      B|---------------------------------------------------
      G|-------------------------4--4--------------4-------
      D|-5--5--------5--5--7--7--------7--7--5--5-----5----
      A|-------5--5----------------------------------------
      E|---------------------------------------------------
      
      
      E|---------------------------------------------------
      B|---------------------------------------------------
      G|---------------------------------------------------
      D|---------------------------------------------------
      A|-0--0--------0--0--2--2--3--3--2--2--0--0--2--0----
      E|-------0--0----------------------------------------
      
      
      E|---------------------------------------------------
      B|---------------------------------------------------
      G|-------------------------2--2----------------------
      D|-3--3--------3--3--5--5--------5--5--3--3/7--\3~~--
      A|-------3--3----------------------------------------
      E|---------------------------------------------------
      
      
      (Parte 2 - 2x)
      
         D5              Bb5
      E|-----------------------------------------
      B|-----------------------------------------
      G|-----------------------------------------
      D|---7---7---7---7---3---3---3---3---------
      A|-5---5---5---5---1---1---1---1-----------
      E|-----------------------------------------
      
      
         C5              Bb5     C5
      E|-----------------------------------------
      B|-----------------------------------------
      G|-----------------------------------------
      D|---5---5---5---5---3---3---5---5---------
      A|-3---3---3---3---1---1---3---3-----------
      E|-----------------------------------------
      
      
         D5              Bb5
      E|-----------------------------------------
      B|-----------------------------------------
      G|-----------------------------------------
      D|---7---7---7---7---3---3---3---3---------
      A|-5---5---5---5---1---1---1---1-----------
      E|-----------------------------------------
      
      
         C5
      E|-----------------------------------------
      B|-----------------------------------------
      G|-----------------------------------------
      D|---5---5---5---5---5---5---5---5---------
      A|-3---3---3---3---3---3---3---3-----------
      E|-----------------------------------------
      
      
      (Parte 2 - Solo 2x)
      
      E|---------------------------------------------------
      B|-------5--6~--8--6--5--------------------------6---
      G|----7------------------5~~----5-----3---5--5/-----7
      D|-7-------------------------5-----5-----------------
      A|---------------------------------------------------
      E|---------------------------------------------------
      
      
      E|---------------------------------------------------
      B|-------5--6~--8--6--5------------------------------
      G|----7------------------5~~-------------------------
      D|-7-------------------------------------------------
      A|---------------------------------------------------
      E|---------------------------------------------------
      
      
      
      Primeira Parte:
      
         D5              Bb5
      E|-----------------------------------------
      B|-----------------------------------------
      G|-----------------------------------------
      D|---7---7---7---7---3---3---3---3---------
      A|-5---5---5---5---1---1---1---1-----------
      E|-----------------------------------------
      
      
         C5              Bb5     C5
      E|-----------------------------------------
      B|-----------------------------------------
      G|-----------------------------------------
      D|---5---5---5---5---3---3---5---5---------
      A|-3---3---3---3---1---1---3---3-----------
      E|-----------------------------------------
      
      
         D5              Bb5
      E|-----------------------------------------
      B|-----------------------------------------
      G|-----------------------------------------
      D|---7---7---7---7---3---3---3-------------
      A|-5---5---5---5---1---1---1---------------
      E|-----------------------------------------
      
      
         C5              Bb5     C5
      E|-----------------------------------------
      B|-----------------------------------------
      G|-----------------------------------------
      D|---5---5---5---5---3---3---5---5---------
      A|-3---3---3---3---1---1---3---3-----------
      E|-----------------------------------------
      
      
      D5        Bb5            C5
        I am a man who walks alone
                    Bb5          C5   D5
      And when I'm walking in a dark road
                     Bb5                 C5   Bb5  C5
      At night or strolling through the park
      
         D5              Bb5
      E|-----------------------------------------
      B|-----------------------------------------
      G|-----------------------------------------
      D|---7---7---7---7---3---3---3---3---------
      A|-5---5---5---5---1---1---1---1-----------
      E|-----------------------------------------
      
      
         D5              F5      G5
      E|-----------------------------------------
      B|-----------------------------------------
      G|-------------------5---5---7---7---------
      D|---5---5---5---5-3---3---5---5-----------
      A|-3---3---3---3---------------------------
      E|-----------------------------------------
      
      
         D5              Bb5
      E|-----------------------------------------
      B|-----------------------------------------
      G|-----------------------------------------
      D|---7---7---7---7---3---3---3---3---------
      A|-5---5---5---5---1---1---1---1-----------
      E|-----------------------------------------
      
      
         C5
      E|-----------------------------------------
      B|-----------------------------------------
      G|-----------------------------------------
      D|---5---5---5---5---5---5---5---5---------
      A|-3---3---3---3---3---3---3---3-----------
      E|-----------------------------------------
      
      
      D5          Bb5              C5
        When the light begins to change
                 F5       G5       D5
      I sometimes feel a little strange
               Bb5                C5
      A little anxious when it's dark
      
         Bb5             C5
      E|-----------------------------------------
      B|-----------------------------------------
      G|-----------------------------------------
      D|---3---3---3---3---5---5---5---5---------
      A|-1---1---1---1---3---3---3---3-----------
      E|-----------------------------------------
      
      
         D5              C5
      E|-----------------------------------------
      B|-----------------------------------------
      G|-----------------------------------------
      D|---7---7---7---7---5---5---5---5---------
      A|-5---5---5---5---3---3---3---3-----------
      E|-----------------------------------------
      
      
         Bb5             F5      G5
      E|-----------------------------------------
      B|-----------------------------------------
      G|-------------------5---5---7---7---------
      D|---3---3---3---3-3---3---5---5-----------
      A|-1---1---1---1---------------------------
      E|-----------------------------------------
      
      
         C5
      E|-----------------------------------------
      B|-----------------------------------------
      G|-----------------------------------------
      D|---5---5---5---5---5---5---5---5---------
      A|-3---3---3---3---3---3---3---3-----------
      E|-----------------------------------------
      
      
         Bb5             C5
      E|-----------------------------------------
      B|-----------------------------------------
      G|-----------------------------------------
      D|---3---3---3---3---5---5---5---5---------
      A|-1---1---1---1---3---3---3---3-----------
      E|-----------------------------------------
      
      
         D5              C5
      E|-----------------------------------------
      B|-----------------------------------------
      G|-----------------------------------------
      D|---7---7---7---7---5---5---5---5---------
      A|-5---5---5---5---3---3---3---3-----------
      E|-----------------------------------------
      
      
         Bb5             F5      G5
      E|-----------------------------------------
      B|-----------------------------------------
      G|-------------------5---5---7---7---------
      D|---3---3---3---3-3---3---5---5-----------
      A|-1---1---1---1---------------------------
      E|-----------------------------------------
      
      
         C5
      E|-----------------------------------------
      B|-----------------------------------------
      G|-----------------------------------------
      D|---5---5---5---5---5---5---5---5---------
      A|-3---3---3---3---3---3---3---3-----------
      E|-----------------------------------------
      
      
                   Bb5  C5              D5
      Fear of the dark,    fear of the dark
      C5          Bb5                F5         G5      D5
        I have a constant fear that something's always near
                   Bb5  C5              D5
      Fear of the dark,    fear of the dark
      C5           Bb5        F5       G5       D5
        I have a phobia that someone's always there
      Riff 1 - 2x:
      
      E|---------------------------------------------------
      B|---------------------------------------------------
      G|---------------------------------------------------  (3x)
      D|-0---0-7-7-5-5-7-7-0-0-7-7-5-5-7-------------------
      A|---------------------------------------------------
      E|---------------------------------------------------
      
      
      E|---------------------------------------------------
      B|---------------------------------------------------
      G|---------------------------------------------------
      D|-0---0-----------------5-5-------------------------
      A|-------0-0-5-5-7-7-8-8-----8-8-7-------------------
      E|---------------------------------------------------
      
      
      
      Segunda Parte:
      
       D5                                 Bb5
      Have you run your fingers down the wall
                                         C5
      And have you felt your neck skin crawl
                                     D5
      When you're searching for the light?
                                              Bb5
      Sometimes when you're scared to take a look
                            C5
      At the corner of the room
                                               D5
      You've sensed that something's watching you
      
                   Bb5  C5              D5
      Fear of the dark,    fear of the dark
      C5          Bb5                F5         G5      D5
        I have a constant fear that something's always near
                   Bb5  C5              D5
      Fear of the dark,    fear of the dark
      C5           Bb5        F5       G5       D5
        I have a phobia that someone's always there
      
      Terceira Parte:
      
       D5            Bb5           C5
      Have you ever been alone at night
                   F5         G5     D5
      Thought you heard footsteps behind
                   Bb5                 C5
      And turned around and no one's there?
      D5             Bb5            C5
        And as you quicken up your pace
                      Bb5     C5    D5
      You'll find it hard to look again
                      Bb5                  C5
      Because you're sure that someone's there
      
                   Bb5  C5              D5
      Fear of the dark,    fear of the dark
      C5          Bb5                F5         G5      D5
        I have a constant fear that something's always near
                   Bb5  C5              D5
      Fear of the dark,    fear of the dark
      C5           Bb5        F5       G5       D5
        I have a phobia that someone's always there
      
      (Riff 1 - 2x)
      Riff 2:
      
      E|---------------------------------------------------
      B|----5--6--5~--6p5----------------------------------
      G|-7~----------------7~---5h7p5-3~---2h3p2-0--2b3r2~-
      D|---------------------------------------------------
      A|---------------------------------------------------
      E|---------------------------------------------------
      
      
      E|---------------------------------------------------
      B|----5--6--5~--6p5----------------------------------
      G|-7~---------------7~---5h7p5-3~---2h3p2-0--2/5~-7~-
      D|---------------------------------------------------
      A|---------------------------------------------------
      E|---------------------------------------------------
      
      
      E|---------------------------------------------------
      B|----------------5--6--8-6-5~~--------5--6--8-6-5~~-
      G|----7~~------7--------------------7----------------
      D|-7--------7--------------------7-------------------
      A|---------------------------------------------------
      E|---------------------------------------------------
      
      
      E|---------------------------------------------------
      B|---------------------------------------------------
      G|-5h7p5---------------------------------------------
      D|--------7b8r7~~------------------------------------
      A|---------------------------------------------------
      E|---------------------------------------------------
      
      
      E|---------------------------------------------------
      B|----------------5--6--8-6-5~~--------5--6--8-6-5~~-
      G|----7~~------7--------------------7----------------
      D|-7--------7--------------------7-------------------
      A|---------------------------------------------------
      E|---------------------------------------------------
      
      
      E|---------------------------------------------------
      B|-----------10b11r~~--------------------------------
      G|-5h7p5---------------------------------------------
      D|--------7------------------------------------------
      A|---------------------------------------------------
      E|---------------------------------------------------
      
      
      Solo 1: D5  Bb5  C5  D5 (2x)
      E|---------------------------------------------------
      B|-10-------10-------10------------------------------
      G|-12b14~~--12b14~~--12b14r12--10----10--------------
      D|--------------------------------12-----------------
      A|---------------------------------------------------
      E|---------------------------------------------------
      
      
      E|---------------------------------------------------
      B|-13b15~~--13b15r13-10----10------------------------
      G|----------------------13----13-12-10----10~--------
      D|-------------------------------------12------------
      A|---------------------------------------------------
      E|---------------------------------------------------
      
      
      E|-13b15----b15r13-12-10----10-----------------------
      B|-----------------------13----13-11-10----10--------
      G|--------------------------------------12----12-10--
      D|---------------------------------------------------
      A|---------------------------------------------------
      E|---------------------------------------------------
      
      
      E|---------------------------------------------------
      B|---------------------------------------------------
      G|----10---------------------------------------------
      D|-12----12-11-10-------10-12~-----------------------
      A|----------------10-12------------------------------
      E|---------------------------------------------------
      
      
      E|-15b17----15b17~~--15b17r15-13----13---------------
      B|-------------------------------15------------------
      G|---------------------------------------------------
      D|---------------------------------------------------
      A|---------------------------------------------------
      E|---------------------------------------------------
      
      
      E|-13b15r13-13p12p10----10---------------------------
      B|-------------------13----13-11-10----10------------
      G|----------------------------------12----12-10------
      D|----------------------------------------------12---
      A|---------------------------------------------------
      E|---------------------------------------------------
      
      
      E|---------------------------------------------------
      B|---------------------------------------------------
      G|-10-12b14~---b14r12-10-----------------------------
      D|-----------------------12-11-10----10--------------
      A|--------------------------------12----12-11-10-8---
      E|---------------------------------------------------
      
      
      E|---------------------------------------------------
      B|---------------------------------------------------
      G|---------------------------------------------------
      D|---------------------------------------------------
      A|-10-8p7--------------------------------------------
      E|--------10~~---------------------------------------
      
      
      Solo 2: F#5  D5  E5  F#5  (2x)
      E|----17b19r17--17~~-16-17-16h17p16p14h16p14---------
      B|-14------------------------------------------------
      G|---------------------------------------------------
      D|---------------------------------------------------
      A|---------------------------------------------------
      E|---------------------------------------------------
      
      
      E|----14---------------------------------------------
      B|-17----17-15-14h15p14----14------------------------
      G|----------------------16----16-15-14h15p14----14---
      D|-------------------------------------------16----16
      A|---------------------------------------------------
      E|---------------------------------------------------
      
      
      E|---------------------------------------------------
      B|-------------------14h15h17b19---b19r17-14---------
      G|-------------14h16---------------------------------
      D|-15-14h15h16---------------------------------------
      A|---------------------------------------------------
      E|---------------------------------------------------
      
      
      E|-17b19--b19r17-14-------14-------14-------14-------
      B|------------------17b19----17b19----17b19----------
      G|---------------------------------------------------
      D|---------------------------------------------------
      A|---------------------------------------------------
      E|---------------------------------------------------
      
      
      E|---------------------------------------------------
      B|-17p14-16p14----14---------------------------------
      G|-------------17----17-16-14h16p14----14------------
      D|----------------------------------16----16-14h16---
      A|---------------------------------------------------
      E|---------------------------------------------------
      
      
      E|---------------------------------------------------
      B|---------------------------------------------------
      G|-14h16p14-16b18------------------------------------
      D|---------------------------------------------------
      A|---------------------------------------------------
      E|---------------------------------------------------
      
      
      E|-19b21--19b21~--19p17p16---------------------------
      B|-------------------------17-------------14h15p14---
      G|----------------------------16\14----16------------
      D|----------------------------------16---------------
      A|---------------------------------------------------
      E|---------------------------------------------------
      
      
      E|----------------16-17p16----16---------------------
      B|----14-15-17-19----------19----19-18-17h18p17p15---
      G|-16------------------------------------------------
      D|---------------------------------------------------
      A|---------------------------------------------------
      E|---------------------------------------------------
      
      
      E|---------------------------------------------------
      B|-17p15p14-15--14h15p14\12h14p12h14p12\10-----------
      G|---------------------------------------------------
      D|---------------------------------------------------
      A|---------------------------------------------------
      E|---------------------------------------------------
      
      
      E|---------------------------------------9-14--------
      B|-10h12p10h12p10\9--9h10p9h10p9------10-------------
      G|---------------------------------11----------------
      D|---------------------------------------------------
      A|---------------------------------------------------
      E|---------------------------------------------------
      
      
      E|-9h14p9---------------9-14\------------------------
      B|--------10---------12------------------------------
      G|-----------11-9-11---------------------------------
      D|---------------------------------------------------
      A|---------------------------------------------------
      E|---------------------------------------------------
      
      
      Riff 3 - 3x:
      
             D5
      E|--------5-----------------5------------------------
      B|-----------6--8~~------------6--8~~--6~------------
      G|-7-7-7-------------7-7-7---------------------------
      D|---------------------------------------------------
      A|---------------------------------------------------
      E|---------------------------------------------------
      
      
             Bb5
      E|---------------------------------------------------
      B|--------6-----------------6------------------------
      G|-----------7--9~~------------7--9--5~--------------
      D|-8-8-8-------------8-8-8---------------------------
      A|---------------------------------------------------
      E|---------------------------------------------------
      
      
              G5               A5
      E|---------------------------------------------------
      B|---------------------------------------------------
      G|--------7-----5~~---------10--7--9~~---------------
      D|-5-5-5-----8-------7-7-7---------------------------
      A|---------------------------------------------------
      E|---------------------------------------------------
      
      
                D5
      E|---------------------------------------------------
      B|---------------------------------------------------
      G|--------7------7--------------7------7-------------
      D|-10--7------7-----10~--7--10------7-----10---7--10-
      A|---------------------------------------------------
      E|---------------------------------------------------
      
      
      
      (Riff 1 - 2x)
      
      Quarta Parte:
      
       D5              Bb5               C5
      Watching horror films the night before
                F5     G5       D5
      Debating witches and folklores
                    Bb5             C5
      The unknown troubles on your mind
      D5            Bb5              C5
        Maybe your mind is playing tricks
                 F5          G5     D5
      You sense, and suddenly eyes fix
                   Bb5           C5
      On dancing shadows from behind
      
                   Bb5  C5              D5
      Fear of the dark,    fear of the dark
      C5          Bb5                F5         G5      D5
        I have a constant fear that something's always near
                   Bb5  C5              D5
      Fear of the dark,    fear of the dark
      C5           Bb5        F5       G5       D5
        I have a phobia that someone's always there
      
                   Bb5  C5              D5
      Fear of the dark,    fear of the dark
      C5          Bb5                F5         G5      D5
        I have a constant fear that something's always near
                   Bb5  C5              D5
      Fear of the dark,    fear of the dark
      C5           Bb5        F5       G5       D5
        I have a phobia that someone's always there
      
      (Intro - Solo Parte 2)
      
      D5          Bb5               C5
        When I'm walking in a dark road
                F5      G5     D5
        I am a man who walks alone
        Composição: Steve HarrisColaboração e revisão:
        • v.inny
        • fvercosa
        • Endryw
        • Speedoflight
        • +20

        Comentários 225

        140 .
        • emanuel emanuel: Em 05/09/2016 21:16

          esses solos são de que versão fera?

        • vantuir.scalvi vantuir.scalvi: Em 10/01/2016 18:39

          quem diz que conseguiu posta o video aii

        • Cesar Cesar: Em 23/12/2015 11:42

          Podiam sair umas aulas do Book of Souls, hein...

        • Vídeo Vídeo: Em 13/08/2015 18:17

          Olá, vc poderia fazer uma vídeo aula só ensinando o solo dessa música?

        • vinicius vinicius: Em 02/06/2015 01:44

          qual e o melhor pedal para tocar heavy metal ?

        • Giovanni Giovanni: Em 07/05/2015 21:02

          Pq eu acho que o solo ta errado ?

        • Carlos Carlos: Em 19/04/2015 16:18

          estranho q o solo q eles ensinam com o solo do disco n combina, tomar no cu!! eles n avisam...

        • rodriguesjunior1 rodriguesjunior1: Em 16/04/2015 00:41

          Isto é maravilhoso!

        • joaogil.calvinho joaogil.calvinho: Em 22/11/2014 20:30

          Alguém escreve as escalas do solo?Por favor?

        • aviles.rafael.5 aviles.rafael.5: Em 18/08/2014 17:15

          Fácil,O Problema é os solos

        140 cancelar
        0:00 / 0:00
        3 versões de baixo exibições contribuição e correção
        2 versões de bateria exibições contribuição e correção
        play/pausefechar subir/descer velocidade
        6ª corda E5ª corda A4ª corda D3ª corda G2ª corda B1ª corda E
          acordes
          transcrição verificada v.inny instrutor de guitarra
          publicidade
          fechar
          ok