Cifra Club

The Evil That Men Do

Iron Maiden

Cifra: Principal (violão e guitarra)
Tom: E
Intro:  E5        D5      C5      D5       C5       C5 D5 E5         D5        C5

      Guitarra  Janick Gears  e Dave Murray
     E5                                                        D5
E|-------------------------|------------------------|
B|-------------------------|------------------------|
G|-------------------------|------------------------|
D|-----5-----7/9\7--5--7/9-|-----5--7/9\7--5--7/9---|
A|-/7-----7----------------|-/7-------------------7-|
E|-------------------------|------------------------|

   C5                         D5
E|-----------------------------|---------------------|
B|-----------------------------|---------8b10-r8--8--|
G|-----------------------------|-7h9p7---------------|
D|-----5-----7/9\7--5--7/9---7-|---------------------|
A|-/7-----7--------------------|---------------------|
E|-----------------------------|---------------------|

   C5                 C5  D5  E5
E|----------------------------|------------------------------|
B|----------------------------|------------------------------|
G|----------------------------|------------------------------|
D|-----5-----7/9\7--5--7-/9---|-----5--7/9\7--5--7/9-(9)-(9)-|
A|-/7-----7-----------------7-|-/7---------------------------|
E|----------------------------|------------------------------|

    D5                       C5
E|------------------------------|
B|------------------------------|
G|------------------------------|
D|-----5-----7/9\7--5--7-/9-----|
A|-/7-----7-----------------7~~-|
E|------------------------------|

Ponte 1
    E5          C5
E|----------------------------------|2
B|-----------------------8-7-8-7----|v
G|-9-9-9...----5-5-5-5---5-5-5-5--7-|e
D|-9-9-9...----5-5-5-5------------7-|z
A|-7-7-7...----3-3-3-3--------------|e
E|----------------------------------|s

00 min 41 seg

(Ponte 1)   
E5                                             C5
Love is a razor, and I walked the line on that silver blade
    E5                                                                 C5
Slept in the dust with his daughter her eyes red with the slaughter of innocence

Ponte 2
    E5        C5        G5        D5
E|--------------------------------------------|
B|--------------------------------------------|
G|-9-9-9...--5-5-5...-------------------------|
D|-9-9-9...--5-5-5...--5-5-5...---------------|
A|-7-7-7...--3-3-3...- 5-5-5...-----------2-3-|
E|---------------------3-3-3...-5-2--3-5------|

    E5        C5        G5         D5       C5
E|--------------------------------------------|
B|--------------------------------------------|
G|-9-9-9...--5-5-5...-------------------------|
D|-9-9-9...--5-5-5...--5-5-5...---------------|
A|-7-7-7...--3-3-3...- 5-5-5...-----------2-3-|
E|---------------------3-3-3...-5-2--3-5------|

    C5
E|-------------------------| 
B|-------------------------|
G|-5---4-------------------|
D|--------7--5--4--5--7----|
A|-----------------------3-|
E|-------------------------|

00 min 54 seg

(Ponte 2)
 E5           C5
And I will pray for her
 G5           D5             E5
I will call her name out loud
        C5
I would bleed for her
 G5            D5          C5
If I could only see her now
     
Guitarra  Janick Gears 

Ponte 3
 
(I)

   C5                        E5
E|---------------------------|--------------------------|
B|---------------------------|--------------------------|
G|---------------------------|--------------------------|
D|-----5-----7/9\7--5--7/9---|-----5--7/9\7--5--7--5--4-|
A|-/7-----7----------------7-|-/7-----------------------|
E|---------------------------|--------------------------|

   D5                         C5            D5
E|----------------------------|-----------------------|
B|----------------------------|-----------------------|
G|----------------------------|-------------4--7--7b9-|
D|-----5-----7/9\7--5--7/9----|----4--5--7------------|
A|-/7-----7-----------------7-|-7---------------------|
E|----------------------------|-----------------------|

(II)

   C5                         E5
E|----------------------------|--------------------------|
B|----------------------------|--------------------------|
G|----------------------------|--------------------------|
D|-----5-----7/9\7--5--7/9----|-----5--7/9\7--5--7--5--4-|
A|-/7-----7-----------------7-|-/7-----------------------|
E|----------------------------|--------------------------|

   D5                         C5            D5
E|----------------------------|------------------------|
B|----------------------------|------------------------|
G|----------------------------|----------4--5--7--9--9-|
D|-----5-----7/9\7--5--7/9----|-4--5--7----------------|
A|-/7-----7-----------------7-|------------------------|
E|----------------------------|------------------------|

Guitarra  Dave Murray

Ponte 3

(I)

   C5                               E5
E|---------------------------------|--------------------------------|
B|----8-----10/12\10--8--10--12----|----8-----10/12\10--8--10--8--7-|
G|-9-----9-----------------------9-|-9-----9------------------------|
D|---------------------------------|--------------------------------|
A|---------------------------------|--------------------------------|
E|---------------------------------|--------------------------------|

   D5                              C5            D5
E|---------------------------------|--------------7--10--10b12-|
B|----8-----10/12\10--8--10--12----|----7--8--10---------------|
G|-9-----9-----------------------9-|-9-------------------------|
D|---------------------------------|---------------------------|
A|---------------------------------|---------------------------|
E|---------------------------------|---------------------------|

(II)

   C5                               E5
E|---------------------------------|--------------------------------|
B|----8-----10/12\10--8--10--12----|----8-----10/12\10--8--10--8--7-|
G|-9-----9-----------------------9-|-9-----9------------------------|
D|---------------------------------|--------------------------------|
A|---------------------------------|--------------------------------|
E|---------------------------------|--------------------------------|

   D5                              C5            D5
E|---------------------------------|-----------7--8--10--12--12-|
B|----8-----10/12\10--8--10--12----|-7--8--10-------------------|
G|-9-----9-----------------------9-|----------------------------|
D|---------------------------------|----------------------------|
A|---------------------------------|----------------------------|
E|---------------------------------|----------------------------|

01 min 09 seg

(Ponte 3 - I e II)
C5
Living on a razors edge
E5
Balancing on the ledge
D5
Living on a razors edge
C5           D5
Balancing on the ledge
C5
Balancing on the ledge
E5
Living on a razors edge
D5
Balancing on the ledge
C5           D5
You know, you know

Refrão

Guitarra  Dave Murray
    E5                     D5    C5   D5
E|-------------------------------------|
B|-------------------------------------|
G|-------------------------------5---7-|
D|-7b9r7--5------7b9r7--5--------5---7-|
A|-----------7-------------7--5--3---5-|
E|-------------------------------------|

    E5                    D5     C5  A5
E|-------------------------------------|
B|-------------------------------------|
G|-------------------------------5---2-|
D|-7b9r7--5------7b9r7--5--------5---2-|
A|-----------7-------------7--5--3---0-|
E|-------------------------------------|

    E5                     D5    C5   D5
E|-------------------------------------|
B|-------------------------------------|
G|-------------------------------5---7-|
D|-7b9r7--5------7b9r7--5--------5---7-|
A|-----------7-------------7--5--3---5-|
E|-------------------------------------|

    E5                    D5     C5  A5
E|-------------------------------------|
B|-------------------------------------|
G|-------------------------------5---2-|
D|-7b9r7--5------7b9r7--5--------5---2-|
A|-----------7-------------7--5--3---0-|
E|-------------------------------------|


01 min 32 seg

(Refrão)

   E5                      D5    C5     D5
The evil that men do lives on and on
   E5                      D5    C5     A5
The evil that men do lives on and on
   E5                      D5    C5     D5
The evil that men do lives on and on
   E5                      D5    C5     A5
The evil that men do lives on and on

01 min 56 seg

(Ponte 1)

E5                                   C5
Circle of fire, my baptism of joy at an end it seems
E5                                          C5
The seventh lamb slain the book of life opens before me

02 min 08 seg

(Ponte 2)

E5           C5
And I will pray for you
G5      D5            E5
Some day I may return
            C5
Don't you cry for me
G5       D5          C5
Beyond is where I learn

02 min 23 seg

(Ponte 3 - II)

C5
Living on a razors edge
E5
Balancing on the ledge
D5
Living on a razors edge
C5           D5
You know, you know

02 min 34 seg


(Refrão)

   E5                      D5    C5     D5
The evil that men do lives on and on
   E5                      D5    C5     A5
The evil that men do lives on and on
   E5                      D5    C5     D5
The evil that men do lives on and on
   E5                      D5    C5     A5
The evil that men do lives on and on

02 min 58 seg

Riff   (E5   C5 D5)   (E5   C5 A5)

SOLO    (F#5   D5   E5) - 3x    (F#5   D5   B5)

Janick Gears

Riff

E|-----------------------------------------|6
B|-----------------------------------------|v
G|-9-x-9-----------------------------------|e
D|-9-x-9-----4h5p4-------------4h5p4-------|z
A|-7-x-7--7---------5--7----7---------5--7-|e
E|-----------------------------------------|s

Dave Murray

Riff

E|-----------------------------------------|2
B|-----------------------------------------|v
G|-9-x-9-----------------------------------|e
D|-9-x-9-----4h5p4-------------4h5p4-------|z
A|-7-x-7--7---------5--7----7---------5--7-|e
E|-----------------------------------------|s

E|---------------------------------------|4
B|---------------------------------------|v
G|------------------------------12-x-12\-|e
D|-7h9p7----------7h9p7----------x-x--x--|z
A|---------9--10--------9--10---10-x-10\-|e
E|---------------------------------------|s

03 min 16 seg

Janick Gears

SOLO

E|---------------14h16h17--17p16p14-------16-------------------------|
B|----17b19------------------------17---------17------17-------------|
G|-16---------------------------------------------16------16---------|
D|------------------------------------------------------------16-----|
A|----------------------------------------------------------------14-|
E|-------------------------------------------------------------------|

E|---------------------------------------------------------12------------|
B|----------------------------------------------10--9--10------9b10------|
G|----------------7p6p4---9p7p6-----11~~---/11-----------------------9~~-|
D|-7p6p4---9p7p6--------7-------9----------------------------------------|
A|------7-------9--------------------------------------------------------|
E|-----------------------------------------------------------------------|

E|-------------12-------------------12-------------------12---------------|
B|-----10----------12-------10----------12-------10----------12-----------|
G|-11------11-----------11------11-----------11------11----------11(L1/2)-|
D|------------------------------------------------------------------------|
A|------------------------------------------------------------------------|
E|------------------------------------------------------------------------|

E|-16------------------------------------|
B|-----17------17\16---------------------|
G|---------16---------16------14---------|
D|------------------------16------16-----|
A|------------------------------------16-|
E|---------------------------------------|

E|-19b21r-19--16--17--16h17p16-14--16--14h16p14------14-------------------|
B|-----------------------------------------------17------17--14-----------|
G|---------------------------------------------------------------16--12~~-|
D|------------------------------------------------------------------------|
A|------------------------------------------------------------------------|
E|------------------------------------------------------------------------|

03 min 40 seg

(Ponte 3 - II)

C5
Living on a razors edge
E5
Balancing on the ledge
D5
Living on a razors edge
C5           D5
You know, you know

03 min 51 seg


(Refrão)

   E5                      D5    C5     D5
The evil that men do lives on and on
   E5                      D5    C5     A5
The evil that men do lives on and on
   E5                      D5    C5     D5
The evil that men do lives on and on
   E5                      D5    C5     A5
The evil that men do lives on and on

Janick Gears

(Final)

E|-------------------15--12------------------------------~--|
B|--------------12-------------15--13--12----------15b17~~--|
G|-11--12--14------------------------------14--12-----------|
D|----------------------------------------------------------|
A|----------------------------------------------------------|
E|----------------------------------------------------------|

E|--------15----------15----------15----------|
B|-15b17-------15b17-------15b17--------15b17-|
G|--------------------------------------------|
D|--------------------------------------------|
A|--------------------------------------------|
E|--------------------------------------------|

E|------------------------------------------|
B|------------------------------------------|
G|-----------------------------------9-x-9--|
D|----4h5p4-------------4h5p4--------9-x-9--|
A|-7---------5--7----7---------5--7--7-x-7--|
E|------------------------------------------|

04 min 15 seg

(Final)

   E5
The evil
         D5
The evil
    C5            D5
The evil that men do

   E5
The evil
         D5
The evil
    C5            D5     E5
The evil that men do
exibições 99.347
Acordes para:

    0 comentários

    mostrar mais comentários

    Conseguiu tocar?

    10 tocaram 0 ainda não

    Grave um vídeo tocando The Evil That Men Do e mande pra gente!

    00:00 / 00:00
    outros vídeos desta música
    repetir qualidade Automático
    Outros vídeos desta música
    00:00 / 00:00
    Automático
    OK