Cifra Club

Dance of Death

Iron Maiden

Cifra: Principal (violão e guitarra)
Tom: E
Intro:
 Base:
E|-------------------------------------------------------------|
B|-------------------------------------------------------------|
G|-------------------------------------------------------------|    (Repete 1ªvez e começa o solo)
D|--9-9-----12--12----7-7----5-5----5-5----7-7----9-9----9-9---|
A|-7-7-7---9---9--9--5-5-5--3-3-3--3-3-3--5-5-5--7-7-7--7-7-7--|
E|-------------------------------------------------------------|

 Solo:
E|---------5-------|-7-7------------|-7-7--10-7---------------|-7-7------------|
B|-5~-7~-8---8--5~-|-----10~-8-7----|-----------10-8--10-8----|-----10~-8-7----|
G|-----------------|-------------9~~|----------------------9~~|-------------9~~|
D|-----------------|----------------|-------------------------|----------------|
A|-----------------|----------------|-------------------------|----------------|
E|-----------------|----------------|-------------------------|----------------|

      (A base repete 1ªvez com uma pequena variação durante o solo)
E|------------------------------------------------------------|
B|------------------------------------------------------------|
G|------------------------------------------------------------|
D|--9-9-----12-12----7-7----5-5----5-5----7-7----9-9----9-9---|
A|-7-7-7---9--9--9--5-5-5--3-3-3--3-3-3--5-5-5--7-7-7--7-7-7--|
E|------------------------------------------------------------|

E|------------------------------------------------------------|
B|------------------------------------------------------------|
G|------------------------------------------------------------|    
D|--9-9-----12-12----7-7----2-2----5-5----7-7----9-9----9-9---|
A|-7-7-7---9--9--9--5-5-5--0-0-0--3-3-3--5-5-5--7-7-7--7-7-7--|
E|------------------------------------------------------------|

Parte 1:
Riff de Continuação (2x)
E|------------------------------------------------------------|
B|------------------------------------------------------------|
G|------------------------------------------------------------|
D|--9-9-----12-12----7-7----5-5----5-5----7-7----9-9----9-9---|
A|-7-7-7---9--9--9--5-5-5--3-3-3--3-3-3--5-5-5--7-7-7--7-7-7--|
E|------------------------------------------------------------|

E|------------------------------------------------------------|
B|------------------------------------------------------------|
G|------------------------------------------------------------|    
D|--9-9-----12-12----7-7----2-2----5-5----7-7----9-9----9-9---|
A|-7-7-7---9--9--9--5-5-5--0-0-0--3-3-3--5-5-5--7-7-7--7-7-7--|
E|------------------------------------------------------------|

Let me tell you a story to chill the bones
About a things that I saw
One night wandering in the everglades
I'd one drink but no more

I was rambling, enjoying the bright moonlight
Gazing up at the stars
Not aware of a presence so near to me
Watching my every move


Verso:
|----------|--------------|---------|--------------------|---------|----------------------|
|----------|--------------|---------|--------------------|---------|----------------------|
|----------|--------------|---------|--------------------|---------|----------------------|
|--9-9-9-9-|--12-12-12-12-|-7-7-7-7-|--5-5-5-5--5-5-5-5--|-7-7-7-7-|-9-9-9-9-9-9-9-9-9-9--|
|--7-7-7-7-|--9--9--9--9--|-5-5-5-5-|--3-3-3-3--3-3-3-3--|-5-5-5-5-|-7-7-7-7-7-7-7-7-7-7--|
|----------|--------------|---------|--------------------|---------|----------------------|

|--------------------------|
|--------------------------|
|--7-----------------------|
|-----10--9--7--9--10--9~~-|
|--------------------------|
|--------------------------| (2x)
  No final tem uma pequena varição
|----------|--------------|---------|--------------------|---------|
|----------|--------------|---------|--------------------|---------|
|----------|--------------|---------|--------------------|---------|
|--9-9-9-9-|--12-12-12-12-|-7-7-7-7-|--5-5-5-5--5-5-5-5--|-7-7-7-7-|
|--7-7-7-7-|--9--9--9--9--|-5-5-5-5-|--3-3-3-3--3-3-3-3--|-5-5-5-5-|
|----------|--------------|---------|--------------------|---------|

Feeling scared and I fell to my knees
As something rushed me from the trees
Took me to an unholy place
And that is where I fell from grace

And They summoned me over to join in with them
To the dance of the death
In to the circle of fire I followed them
Into the middle I was led

( E G D ) (2x)  (1:45-1:50)

( E G D A C D E ) E G D (1:50-2:35)

( E5 G5 D5 A5 C5 D5 E5 ) E5 G5 D5 (2:36-2:45)

( E5 G5 D5 A5 C5 D5 E5 ) (2:46-2:58)

(2:59-3:30 / 4:01-4:31 / 6:56-7:42 )
       (3x)
E|---------------|----------------------------|---------------|---5-7-5-------|
B|-5-7-8-7-5---5-|-5-5-7--7-7-7-5-7-8-7-5---5-|-5-7-8-7-5-7-8-|-8-------8-7-8-|
G|-----------7---|------------------------7---|---------------|---------------|
D|---------------|----------------------------|---------------|---------------|
A|---------------|----------------------------|---------------|---------------|
E|---------------|----------------------------|---------------|---------------|

E|---------------|---------------|---------------|---5-7-5-------|---------------|
B|-8-8-8-7-5---7-|-7-7-8-7-5---5-|-5-7-8-7-5-7-8-|-8-------8-7-8-|-8-8-8-7-5---7-|
G|-----------7---|-----------7---|---------------|---------------|-----------7---|
D|---------------|---------------|---------------|---------------|---------------|
A|---------------|---------------|---------------|---------------|---------------|
E|---------------|---------------|---------------|---------------|---------------|
                        (2x)                                         (2x)
E|---------------|---------------|----------------------------|---------------|
B|-7-7-8-7-5---5-|-5-7-8-7-5---5-|-5-5-7--7-7-7-5-7-8-7-5---5-|-5-7-8-7-5---5-|
G|-----------7---|-----------7---|------------------------7---|-----------7---|
D|---------------|---------------|----------------------------|---------------|
A|---------------|---------------|----------------------------|---------------|
E|---------------|---------------|----------------------------|---------------|

E|----------------------------|---------------|---5-7-5-------|---------------|
B|-5-5-7--7-7-7-5-7-8-7-5---5-|-5-7-8-7-5-7-8-|-8-------8-7-8-|-8-8-8-7-5---7-|
G|------------------------7---|---------------|---------------|-----------7---|
D|----------------------------|---------------|---------------|---------------|
A|----------------------------|---------------|---------------|---------------|
E|----------------------------|---------------|---------------|---------------|

E|---------------|---------------|---5-7-5-------|---------------|---------------|
B|-7-7-8-7-5---5-|-5-7-8-7-5-7-8-|-8-------8-7-8-|-8-8-8-7-5---7-|-7-7-8-7-5---5-|
G|-----------7---|---------------|---------------|-----------7---|-----------7---|
D|---------------|---------------|---------------|---------------|---------------|
A|---------------|---------------|---------------|---------------|---------------|
E|---------------|---------------|---------------|---------------|---------------|

( 3:30-4:00 )
E5 G5 D5 E5

Solo 4: 4:32-5:00
E5 G5 D5 E5

( 5:01-5:44 )
F#5 D5 E5 F#5

1ºGuitarra-5:45-6:13
E5 C5 D5 E5

( 5:14-6:27 )
E5 G5 D5 E5

( 5:16-5:44 )
E|---------------------------------------|---------------------------------------|
B|---------------------------------------|---------------------------------------|
G|-6~~--9--7--6---6--7--6------------6~~-|-6~~--9--7--6---6--7--6----------------|
D|--------------9---------9-7--9-7-9-----|--------------9---------9-7--9-7-6-4~~-|
A|---------------------------------------|---------------------------------------|
E|---------------------------------------|---------------------------------------|

( 6:28-6:55 )

    (E5 C5 D5 E5)
E|---------------------------------------|---------------------------------------|
B|---------------------------------------|---------------------------------------|
G|-4~~--7--5--4---4--5--4------------4~~-|-4~~--7--5--4---4--5--4----------------|
D|--------------7---------7-5--7-5-7-----|--------------7---------7-5--7-5-4-2~~-|
A|---------------------------------------|---------------------------------------|
E|---------------------------------------|---------------------------------------|

( 7:46-8:24 )
       E      G           D      C      C      D      E      E
E|-------------------------------------------------------------|
B|-------------------------------------------------------------|
G|-------------------------------------------------------------|
D|--9-9----12-12----7-7----5-5----5-5----7-7----9-9----9-9-----|
A|-7-7-7--9--9--9--5-5-5--3-3-3--3-3-3--5-5-5--7-7-7--7-7-7----|
E|-------------------------------------------------------------|

       E      G           D      A      C      D      E      E
E|-------------------------------------------------------------|
B|-------------------------------------------------------------|
G|-------------------------------------------------------------|
D|--9-9----12-12----7-7-----7-----5-5----7-7----9-9----9-9-----|
A|-7-7-7--9--9--9--5-5-5---7-7---3-3-3--5-5-5--7-7-7--7-7-7----|
E|------------------------5---5--------------------------------|

( 7:46-8:04 )

Solo:
       E  G  D      C  C      D      E  E      G       D       A  C     D       E  E
E|---------5-------|-7-7------------|-7-7--10-7---------------|-7-7------------|
B|-5~-7~-8---8--5~-|-----10~-8-7----|-----------10-8--10-8----|-----10~-8-7----|
G|-----------------|-------------9~~|----------------------9~~|-------------9~~|
D|-----------------|----------------|-------------------------|----------------|
A|-----------------|----------------|-------------------------|----------------|
E|-----------------|----------------|-------------------------|----------------|
exibições 337.835
Acordes para:
    Composição: Janick Gers / Steve Harris Colaboração e revisão:

    0 comentários

    mostrar mais comentários

    Conseguiu tocar?

    85 tocaram 4 ainda não

    Grave um vídeo tocando Dance of Death e mande pra gente!

    00:00 / 00:00
    outros vídeos desta música
    repetir qualidade Automático
    Outros vídeos desta música
    00:00 / 00:00
    Automático
    OK