Cifra Club

Wasting Love

Iron Maiden

Cifra: Principal (violão e guitarra)
exibições 622.211
Tom: G
[Intro]

(Guitarra Solo)

E|------------5b7r5--------7-5------------------------|
B|-5---7h8----------7----------8-7-8-7h8p7p5----------|
G|---------5----------------------------------7-------|
D|----------------------------------------------------|
A|----------------------------------------------------|
E|----------------------------------------------------|

E|------------5b7r5--------7-5------------------------|
B|-5---7h8----------7----------8-7-8p7-5--------------|
G|---------5------------------------------7-----------|
D|----------------------------------------------------|
A|----------------------------------------------------|
E|----------------------------------------------------|

E|------------5b7r5--------7-5------------------------|
B|-5---7h8----------7----------8-7-8-7h8p7p5----------|
G|---------5----------------------------------7-------|
D|----------------------------------------------------|
A|----------------------------------------------------|
E|----------------------------------------------------|

E|------------5b7r5--------7-5------------------------|
B|-5---7h8----------7----------8-7-8p7-5-----5--------|
G|---------5------------------------------7-----------|
D|----------------------------------------------------|
A|----------------------------------------------------|
E|----------------------------------------------------|

(Guitarra Base)

E|------------8b10r8------10-8------------------------|
B|-8--10h12-----------10-------12-10-12-10h12p10p8----|
G|----------9--------------------------------------11-|
D|----------------------------------------------------|
A|----------------------------------------------------|
E|----------------------------------------------------|

E|------------8b10r8------10-8------------------------|
B|-8--10h12----------10--------12-10-12p10-8----------|
G|----------9--------------------------------11-------|
D|----------------------------------------------------|
A|----------------------------------------------------|
E|----------------------------------------------------|

E|------------8b10r8------10-8------------------------|
B|-8--10h12-----------10-------12-10-12-10h12p10p8----|
G|----------9--------------------------------------11-|
D|----------------------------------------------------|
A|----------------------------------------------------|
E|----------------------------------------------------|

E|------------8b10r8----------------------------------|
B|-8--10h12----------10-------------------------------|
G|----------9-----------------------------------------|
D|----------------------------------------------------|
A|----------------------------------------------------|
E|----------------------------------------------------|

Violão

(Parte 1 - 2x)

   Em9               C9
E|----------------------------------------------------|
B|---------------------------3------------------------|
G|---------0-------------0-------0--------------------|
D|-----4-------4-------4---4---4---4------------------|
A|---2---2---2---2---3--------------------------------|
E|-0--------------------------------------------------|

   Em9               C9
E|----------------------------------------------------|
B|---------------------------3------------------------|
G|---------0-------------0----------------------------|
D|-----4-------4-------4---4--------------------------|
A|---2---2---2---2---3--------------------------------|
E|-0--------------------------------------------------|

[Primeira Parte]

(Parte 1 - 2x)

   Em9               C9
E|----------------------------------------------------|
B|---------------------------3------------------------|
G|---------0-------------0-------0--------------------|
D|-----4-------4-------4---4---4---4------------------|
A|---2---2---2---2---3--------------------------------|
E|-0--------------------------------------------------|

   Em9               C9
E|----------------------------------------------------|
B|---------------------------3------------------------|
G|---------0-------------0----------------------------|
D|-----4-------4-------4---4--------------------------|
A|---2---2---2---2---3--------------------------------|
E|-0--------------------------------------------------|

(Parte 2 - 2x)

   Am7               D11/A
E|----------------------------------------------------|
B|---------1---------------3--------------------------|
G|-----0-------0-------0-------0----------------------|
D|---2---2---2---2/4-----4---4---4--------------------|
A|-0-----------------0--------------------------------|
E|----------------------------------------------------|

(Repete Parte 1 - 3x)

   Em9               C9
E|----------------------------------------------------|
B|---------------------------3------------------------|
G|---------0-------------0-------0--------------------|
D|-----4-------4-------4---4---4---4------------------|
A|---2---2---2---2---3--------------------------------|
E|-0--------------------------------------------------|

   Em9               C9
E|----------------------------------------------------|
B|---------------------------3------------------------|
G|---------0-------------0----------------------------|
D|-----4-------4-------4---4--------------------------|
A|---2---2---2---2---3--------------------------------|
E|-0--------------------------------------------------|

(Parte 2 - 2x)

   Am7               D11/A
E|----------------------------------------------------|
B|---------1---------------3--------------------------|
G|-----0-------0-------0-------0----------------------|
D|---2---2---2---2/4-----4---4---4--------------------|
A|-0-----------------0--------------------------------|
E|----------------------------------------------------|

(Repete Parte 1)

   Em9               C9
E|----------------------------------------------------|
B|---------------------------3------------------------|
G|---------0-------------0-------0--------------------|
D|-----4-------4-------4---4---4---4------------------|
A|---2---2---2---2---3--------------------------------|
E|-0--------------------------------------------------|

   Em9               C9
E|----------------------------------------------------|
B|---------------------------3------------------------|
G|---------0-------------0----------------------------|
D|-----4-------4-------4---4--------------------------|
A|---2---2---2---2---3--------------------------------|
E|-0--------------------------------------------------|

Em9      C9                   Em9      C9   
   Maybe one day I\'ll be an honest man     
Em9         C9                 Em9       C9   
   Up till now I\'m doing the best I can
Am7     D11/A      Am7     D11/A        Em9         C9   
   Long      roads,   long    days, of sunrise, to sunset
 Em9        C9   
Sunrise to sunset

Em9           C9       Em9         C9   
   Dream on brother, while you can
Em9          C9                 Em9        C9   
   Dream on sister, I hope you find the one
Am7  D11/A
  All of our lives
Am7            D11/A         Em9  C9  Em9  C9   
  Covered up quickly by the tides of time

[Refrão]

Parte 1 de 4

   E5      C5            D5           G5    F5
E|----------------------------------------------------|
B|----------------------------------------------------|
G|-----9---5---5-5-5---5/7---7---7-7------------------|
D|-2---9---5---5-5-5---5/7---7---7-7--5-5---3-3-------|
A|-2---7---3---3-3-3---3/5---5---5-5--5-5---3-3-------|
E|-0----------------------------------3-3---1-1-------|

Parte 2 de 4

   E5      C5            D5           G5      F#5
E|----------------------------------------------------|
B|----------------------------------------------------|
G|-----9---5---5-5-5---5/7---7---7-7------------------|
D|-2---9---5---5-5-5---5/7---7---7-7--5-5-5-5-4-4-4-4-|
A|-2---7---3---3-3-3---3/5---5---5-5--5-5-5-5-4-4-4-4-|
E|-0----------------------------------3-3-3-3-2-2-2-2-|

Parte 3 de 4

   E5      C5            D5           G5    D5
E|----------------------------------------------------|
B|----------------------------------------------------|
G|-----9---5---5-5-5---5/7---7---7-7--------7-7-------|
D|-2---9---5---5-5-5---5/7---7---7-7--5-5---7-7-------|
A|-2---7---3---3-3-3---3/5---5---5-5--5-5---5-5-------|
E|-0----------------------------------3-3-------------|

Parte 4 de 4

   E5      C5        D5    C5
E|----------------------------------------------------|
B|----------------------------------------------------|
G|-----9---5---5-5---7-----5--------------------------|
D|-2---9---5---5-5---7-----5--------------------------|
A|-2---7---3---3-3---5-----3--------------------------|
E|-0--------------------------------------------------|

E5            C5          D5       G5  F5
  Spend your days full of emptiness
E5            C5            D5        G5 F#5
  Spend your years full of loneliness
E5         C5         D5             G5 D5
  Wasting love, in a desperate caress
E5          C5        D5   C5
  Rolling shadows of nights

[Interlúdio]

E|-------------------0-----------------------0--------|
B|-------------------3-----------------------3--------|
G|-----0-----0-------0-------0-----0---------0--------|
D|---4-----2---------2-----4-----2-----------2--------|
A|-5-----3-----------2---5-----3-------------2--------|
E|---------------0---------------------0--0--0--------|

E|-------------------0--------------------------------|
B|-------------------3--------------------------------|
G|-----0-----0-------0-------0-----0------------------|
D|---4-----2---------2-----4-----2--------------------|
A|-5-----3-----------2---5-----3----------------------|
E|---------------0------------------------------------|

[Segunda Parte]

(Parte 1 - 2x)

   Em9               C9
E|----------------------------------------------------|
B|---------------------------3------------------------|
G|---------0-------------0-------0--------------------|
D|-----4-------4-------4---4---4---4------------------|
A|---2---2---2---2---3--------------------------------|
E|-0--------------------------------------------------|

   Em9               C9
E|----------------------------------------------------|
B|---------------------------3------------------------|
G|---------0-------------0----------------------------|
D|-----4-------4-------4---4--------------------------|
A|---2---2---2---2---3--------------------------------|
E|-0--------------------------------------------------|

(Parte 2 - 2x)

   Am7               D11/A
E|----------------------------------------------------|
B|---------1---------------3--------------------------|
G|-----0-------0-------0-------0----------------------|
D|---2---2---2---2/4-----4---4---4--------------------|
A|-0-----------------0--------------------------------|
E|----------------------------------------------------|

(Repete Parte 1 - 2x)

   Em9               C9
E|----------------------------------------------------|
B|---------------------------3------------------------|
G|---------0-------------0-------0--------------------|
D|-----4-------4-------4---4---4---4------------------|
A|---2---2---2---2---3--------------------------------|
E|-0--------------------------------------------------|

   Em9               C9
E|----------------------------------------------------|
B|---------------------------3------------------------|
G|---------0-------------0----------------------------|
D|-----4-------4-------4---4--------------------------|
A|---2---2---2---2---3--------------------------------|
E|-0--------------------------------------------------|

(Parte 2 - 2x)

   Am7               D11/A
E|----------------------------------------------------|
B|---------1---------------3--------------------------|
G|-----0-------0-------0-------0----------------------|
D|---2---2---2---2/4-----4---4---4--------------------|
A|-0-----------------0--------------------------------|
E|----------------------------------------------------|

(Repete Parte 1)

   Em9               C9
E|----------------------------------------------------|
B|---------------------------3------------------------|
G|---------0-------------0-------0--------------------|
D|-----4-------4-------4---4---4---4------------------|
A|---2---2---2---2---3--------------------------------|
E|-0--------------------------------------------------|

   Em9               C9
E|----------------------------------------------------|
B|---------------------------3------------------------|
G|---------0-------------0----------------------------|
D|-----4-------4-------4---4--------------------------|
A|---2---2---2---2---3--------------------------------|
E|-0--------------------------------------------------|

[Segunda Parte]

Em9          C9       Em9        C9
  Dream on brother, while you can
Em9         C9                 Em9        C9
  Dream on sister, I hope you find the one
Am7  D11/A
  All of our lives
Am7            D11/A         Em9  C9     Em9  C9
  Covered up quickly by the tides    of time

Am7           D11/A          Am7               D11/A
  Sands are flowing and the lines are in your hand
        Em9             C9
In your eyes I see the hunger
         Em9                C9
And the desperate cry that tears the night

[Refrão]

E5            C5          D5       G5  F5
  Spend your days full of emptiness
E5            C5            D5        G5 F#5
  Spend your years full of loneliness
E5         C5         D5             G5 D5
  Wasting love, in a desperate caress
E5          C5        D5   C5
  Rolling shadows of nights

[Interlúdio]

E|-------------------0-----------------------0--------|
B|-------------------3-----------------------3--------|
G|-----0-----0-------0-------0-----0---------0--------|
D|---4-----2---------2-----4-----2-----------2--------|
A|-5-----3-----------2---5-----3-------------2--------|
E|---------------0---------------------0--0--0--------|

E|-------------------0--------------------------------|
B|-------------------3--------------------------------|
G|-----0-----0-------0-------0-----0------------------|
D|---4-----2---------2-----4-----2--------------------|
A|-5-----3-----------2---5-----3----------------------|
E|---------------0------------------------------------|

[Solo Introdução]

(Guitarra Solo)

E|------------5b7r5--------7-5------------------------|
B|-5---7h8----------7----------8-7-8-7h8p7p5----------|
G|---------5----------------------------------7-------|
D|----------------------------------------------------|
A|----------------------------------------------------|
E|----------------------------------------------------|

E|------------5b7r5--------7-5------------------------|
B|-5---7h8----------7----------8-7-8p7-5--------------|
G|---------5------------------------------7-----------|
D|----------------------------------------------------|
A|----------------------------------------------------|
E|----------------------------------------------------|

E|------------5b7r5--------7-5------------------------|
B|-5---7h8----------7----------8-7-8-7h8p7p5----------|
G|---------5----------------------------------7-------|
D|----------------------------------------------------|
A|----------------------------------------------------|
E|----------------------------------------------------|

E|------------5b7r5--------7-5------------------------|
B|-5---7h8----------7----------8-7-8p7-5-----5--------|
G|---------5------------------------------7----5-5-7-7|
D|---------------------------------------------5-5-7-7|
A|---------------------------------------------3-3-5-5|
E|----------------------------------------------------|

(Guitarra Base)

E|------------8b10r8------10-8------------------------|
B|-8--10h12-----------10-------12-10-12-10h12p10p8----|
G|----------9--------------------------------------11-|
D|----------------------------------------------------|
A|----------------------------------------------------|
E|----------------------------------------------------|

E|------------8b10r8------10-8------------------------|
B|-8--10h12----------10--------12-10-12p10-8----------|
G|----------9--------------------------------11-------|
D|----------------------------------------------------|
A|----------------------------------------------------|
E|----------------------------------------------------|

E|------------8b10r8------10-8------------------------|
B|-8--10h12-----------10-------12-10-12-10h12p10p8----|
G|----------9--------------------------------------11-|
D|----------------------------------------------------|
A|----------------------------------------------------|
E|----------------------------------------------------|

E|------------8b10r8----------------------------------|
B|-8--10h12----------10-------------------------------|
G|----------9-----------------------------------------|
D|----------------------------------------------------|
A|----------------------------------------------------|
E|----------------------------------------------------|

[Ponte - 2x]

E|----------------------------------------------------|
B|------------------------3-------------------------3-|
G|---------0----------0--------------0----------0-----|
D|-----4-----4------4---4--------4-----4------4---4---|
A|---2---2-----2-3-------------2---2-----2-3----------|
E|-0-------------------------0------------------------|

[Solo - 4x] E5  C5  A5  D5  B5

(Guitarra Solo]

E|----------------------------------------------------|
B|-15--------------------12-12------------------------|
G|-14b16r14p12----12~----12-12-7b9r7--5\4-5p4---------|
D|-------------14----/14----------------------7-5-5/7~|
A|----------------------------------------------------|
E|----------------------------------------------------|

E|----15----14----12----------------------------------|
B|-12----12----12----12-15-15b17--15-13-12~-----------|
G|----------------------------------------------------|
D|----------------------------------------------------|
A|----------------------------------------------------|
E|----------------------------------------------------|

E|-----12----14----15----14----15----17----17b19~-----|
B|-/12----12----12----12----12----12----15------------|
G|----------------------------------------------------|
D|----------------------------------------------------|
A|----------------------------------------------------|
E|----------------------------------------------------|

E|--17b19r17-15-14-15----17b19r17-15\14---------------|
B|--------------------------------------15------------|
G|----------------------------------------------------|
D|----------------------------------------------------|
A|----------------------------------------------------|
E|----------------------------------------------------|

E|--17b19r17-15\14-15p14------------------------------|
B|-----------------------15-15/17--15-----------------|
G|----------------------------------------------------|
D|----------------------------------------------------|
A|----------------------------------------------------|
E|----------------------------------------------------|

E|----15p14-------------------------------------------|
B|-12-------15-13-12-13p12----------------------------|
G|-------------------------14-12/11-12~---------------|
D|----------------------------------------------------|
A|----------------------------------------------------|
E|----------------------------------------------------|

E|-----12----14----15----17---17b19~--17~-------------|
B|--12----12----12----12----X-------------------------|
G|----------------------------------------------------|
D|----------------------------------------------------|
A|----------------------------------------------------|
E|----------------------------------------------------|

(Guitarra Base - 4x)

 PM  . . . .   . .          . . . .     . .
E|----------------------------------------------------|
B|----------------------------------------------------|
G|-----------------5-5--------------2-------7-7---4-4-|
D|---------2-------5-5--------------2-------7-7---4-4-|
A|---------2-------3-3------0-0-0-0-0---0-0-5-5---2-2-|
E|-0-0-0-0-0---0-0------------------------------------|

[Refrão Final]

Parte 1 de 4

   E5      C5            D5           G5    F5
E|----------------------------------------------------|
B|----------------------------------------------------|
G|-----9---5---5-5-5---5/7---7---7-7------------------|
D|-2---9---5---5-5-5---5/7---7---7-7--5-5---3-3-------|
A|-2---7---3---3-3-3---3/5---5---5-5--5-5---3-3-------|
E|-0----------------------------------3-3---1-1-------|

Parte 2 de 4

   E5      C5            D5           G5      F#5
E|----------------------------------------------------|
B|----------------------------------------------------|
G|-----9---5---5-5-5---5/7---7---7-7------------------|
D|-2---9---5---5-5-5---5/7---7---7-7--5-5-5-5-4-4-4-4-|
A|-2---7---3---3-3-3---3/5---5---5-5--5-5-5-5-4-4-4-4-|
E|-0----------------------------------3-3-3-3-2-2-2-2-|

Parte 3 de 4

   E5      C5            D5           G5    D5
E|----------------------------------------------------|
B|----------------------------------------------------|
G|-----9---5---5-5-5---5/7---7---7-7--------7-7-------|
D|-2---9---5---5-5-5---5/7---7---7-7--5-5---7-7-------|
A|-2---7---3---3-3-3---3/5---5---5-5--5-5---5-5-------|
E|-0----------------------------------3-3-------------|

Parte 4 de 4 (Variação)

   E5      C5            D5           G5      B5
E|----------------------------------------------------|
B|----------------------------------------------------|
G|-----9---5---5-5-5---5/7---7---7-7----------4-4-4-4-|
D|-2---9---5---5-5-5---5/7---7---7-7--5-5-5-5-4-4-4-4-|
A|-2---7---3---3-3-3---3/5---5---5-5--5-3-3-3-2-2-2-2-|
E|-0----------------------------------3-3-3-3---------|

E5            C5          D5       G5  F5
  Spend your days full of emptiness
E5            C5            D5        G5  F#5
  Spend your years full of loneliness
E5         C5         D5             G5  D5
  Wasting love, in a desperate caress
E5          C5        D5   G5  B5
  Rolling shadows of nights

[Solo Final]

E|--17b19-17b19-17b19--17b19-17b19r17p15--------------|
B|---------------------------------------17~----------|
G|----------------------------------------------------|
D|----------------------------------------------------|
A|----------------------------------------------------|
E|----------------------------------------------------|

E|--------15------------------------------------------|
B|--15b17----17r15~-----------------------------------|
G|-----------------------14b16r14-12----12~-----------|
D|-----------------------------------14---------------|
A|----------------------------------------------------|
E|----------------------------------------------------|

E|----------------------------------------------------|
B|----------------------------------------------------|
G|-----12-14b16r14-12-14---------12----11----9----7---|
D|--14------------------------14----------------------|
A|----------------------------------------------------|
E|----------------------------------------------------|

E5            C5          D5       G5  F5
  Spend your days full of emptiness
E5            C5            D5        G5  F#5
  Spend your years full of loneliness
E5         C5         D5             G5  D5
  Wasting love, in a desperate caress
E5          C5        D5   C5
  Rolling shadows of nights

[Final]

E|-------------------------0--------------------------|
B|-------------------------3--------------------------|
G|-----0-----0-------------0--------------------------|
D|---4-----2---------------2--------------------------|
A|-5-----3-----------------2--------------------------|
E|----------------0--------0--------------------------|

0 comentários

mostrar mais comentários

Conseguiu tocar?

158 tocaram 3 ainda não

Grave um vídeo tocando Wasting Love e mande pra gente!

00:00 / 00:00
outros vídeos desta música
repetir qualidade Automático
Outro vídeos desta música
00:00 / 00:00
Automático
Capítulos
  • Abertura
  • Tocando a Música
  • Dicas Iniciais
  • Tocando Introdução
  • Ensinando Introdução | Guitarra Solo
  • Ensinando Introdução | Guitarra Base
  • Tocando Primeira Parte
  • Ensinando Primeira Parte
  • Tocando Refrão
  • Ensinando Refrão
  • Tocando Interlúdio
  • Ensinando Interlúdio
  • Tocando Segunda Parte
  • Tocando Refrão
  • Tocando Interlúdio
  • Tocando Introdução
  • Tocando Ponte
  • Ensinando Ponte
  • Tocando Solo
  • Ensinando Solo | Guitarra Solo
  • Ensinando Solo | Guitarra Base
  • Tocando Refrão Final
  • Ensinando Solo Final
  • Encerramento
  • Ficha Técnica
OK