Cifra Club

Flight of Icarus

Iron Maiden

Cifra: Principal (violão e guitarra)
Tom: A
Versão 1
-======-




   A    E    F#m
|--5----0----2-------------------------|
|--5----0----2-------------------------|
|--6----1----2-------------------------|
|--7----2----4----4-4--4----4-4--------|
|--7----2----4----4-4--4----4-4--etc---|
|--5----0----2----2-2--2----2-2--------|

     LET RING        [2nd Verse-hold chord position]
|--2----------------|-2-------------------------------------------|
|--2----------------|----2-----5----------------------------------|
|--2----------------|-------2-------------------------------------|
|--4----------------|---------------------------------------------|
|--4----------------|---------------------------------------------|
|--2----------------|---------------------------------------------|
   As the sun...

                       A    E
|----------------------5----0-------------------------------------|
|----------------------5----0-------------------------------------|
|----------------------6----1-------------------------------------|
|----------------------7----2-------------------------------------|
|----------------------7----2-LET RING|----------------------------|
|----------------------5----0-------------------------------------|
   Stands on the Hill

   A    F#m
|--5----2---------------------------------------------------------|
|--5----2---------------------------------------------------------|
|--6----2---------------------------------------------------------|
|--7----4---------------------------------------------------------|
|--7----4---------------------------------------------------------|
|--5----2---------------------------------------------------------|
        A bird song shatters the still


BRIDGE:
   F#(m)            Ab+5 (E/Ab)     A             B    C#
|-----------------------------------------------------------------|
|-----------------------------------------------------------------|
|-----------------------------------------------------------------|
|-(4)-------------------------------2-------------4----6----------|
|--4----------------7---------------0-------------2----4----------|
|--2----------------4---------------------------------------------|
   His eyes seem so glazed, see the madman in his gaze

CHORUS:
I'll try and show the idea of the chorus, listen for the
strumming and chord slides. At the end go back to strumming
the F# power chord as in the intro.

   F#m          E            D C# D                        E
|--2------------0-------------------------------------------------|
|--2------------0-------------------------------------------------|
|--2------------1-------------------------------------------------|
|--4------------2------------76/7--6/76/7-etc-------6/7--9------|
|--4------------2------------54/5--4/54/5-----------4/5--7------|
|--2------------0-------------------------------------------------|
   Fly, on your way, like an eagle,            fly as high as the
   Sun, on your way, like an eagle,            fly as high as the

RHYTHM FOR SOLO'S:
   F#m                 A    E    F#m
|----------------------5----0----2--------------------------------|
|----------------------5----0----2--------------------------------|
|----------------------6----1----2--------------------------------|
|--4---4-4-4-----------7----2----4---4-4-4------------------------|
|--4---4-4-4-etc-------7----2----4---4-4-4-etc--------------------|
|--2---2-2-2-----------5----0----2---2-2-2------------------------|

   A    E                       A    E    F#m
|--5----0-----------------------5----0----2-----------------------|
|--5----0-----------------------5----0----2-----------------------|
|--6----1----1------------------6----1----2-----------------------|
|--7----2----2---2-2-2----------7----2----4---4-4-4---------------|
|--7----2----2---2-2-2-etc------7----2----4---4-4-4-etc-----------|
|--5----0----0---0-0-0----------5----0----2---2-2-2---------------|

For Solo 2 use BRIDGE

ENDING:
Play through BRIDGE several times then on the last one
stop at the B power chord(let it ring) and then strum
F#m fast and end with A E F#m as in the intro.

________________________________________________________________

Versão 2
-======-

Esse solo tah bem certinho tah tirado da partitura



Dave solo 1


E|-----------------------------|------------------------------------------|
B|-----------------------------|---------------------------14h15h14-15-17-|
G|--4~---4h2-------------------|------------13h14h13-14h16----------------|
D|-----------4h2---------------|------14h16-------------------------------|
A|---------------4h3h2h0-------|------------------------------------------|
E|-----------------------2-2~--|------------------------------------------|


--14h17h14----14h17h14----14h17h14----14h17h14--------------16-17-|
-----------17----------17----------17----------17~----17/19~------|
------------------------------------------------------------------|
------------------------------------------------------------------|
------------------------------------------------------------------|
------------------------------------------------------------------|


--19-19~----19h17-19-19~----19h17-|
----------------------------------|
----------------------------------|
----------------------------------|
----------------------------------|
----------------------------------|


--17h19h17h19h17h19h17h19h17h19h17h19h17h19h17h19-16h17h16h17h16h17h16h17h16h17h
--------------------------------------------------------------------------------
--------------------------------------------------------------------------------
--------------------------------------------------------------------------------
--------------------------------------------------------------------------------
--------------------------------------------------------------------------------


--14h16h14h16-------------------------------------------------------------------
--------------17h14h17h14h17h14h17h14h17h14h17h14-------------------------------
--------------------------------------------------14h16h14h16h14h16h14h16-16~---
--------------------------------------------------------------------------------
--------------------------------------------------------------------------------
--------------------------------------------------------------------------------


--------------------------------------|----------------------------|
----------------------------------14--|------14--16~-16~-14~-------|
--16h14---------------------------14--|------14--16~-16~-14~-------|
--------16h14-------------------------|--16------------------------|
--------------16h15h14/12~----16------|----------------------------|
--------------------------------------|----------------------------|







Adrian solo 2


--17~---17~-----------14--|--17~---17~-------17--14h17h14-|
------------------14------|-------------------------------|
--------------------------|-------------------------------|
--------------------------|-------------------------------|
--------------------------|-------------------------------|
--------------------------|-------------------------------|


-----14-------14------------------------|---------------------------------|
--17----17~------17h14------14----------|---------------------------------|
-----------------------16~-----16h14----|--14h13-----13h11-----11---------|
-------------------------------------16~|--------16--------14------9~-----|
----------------------------------------|---------------------------------|
----------------------------------------|---------------------------------|


----------------------------------|-------------------------|
----------14------14------14------|--14---------------------|
--11~-11~-----11------11------11--|------11--7/-11~---------|
----------------------------------|-------------------------|
----------------------------------|-------------------------|
----------------------------------|-------------------------|


-----------14----14----14----14----14----14----14-|
--15-17-17~---17~---17~---17~---17~---17~---17~---|
--------------------------------------------------|
--------------------------------------------------|
--------------------------------------------------|
--------------------------------------------------|


--14----------------17h14----14-------------|
-----17h14----------------17----17h14----14-|
-----------17h16~---------------------17----|
--------------------------------------------|
--------------------------------------------|
--------------------------------------------|


------------------------------------------|
------------------------------------------|
--17h16h14h16h14/13~----------------------|
----------------------------14h16h14/--11-|
----------------------14h16---------------|
------------------------------------------|


------------------------------------------------------------------|---||
------------------------------------------------------------------|---||
--6h9h6h9h6h9h6h9h6h9h6h9h6h9h6h9h6h9h6h9h6h9h6h9h6h9h6h9h6h9h6h9~|---||
------------------------------------------------------------------|---||
------------------------------------------------------------------|---||
------------------------------------------------------------------|---||
exibições 78.959
Acordes para:

    0 comentários

    mostrar mais comentários

    Conseguiu tocar?

    7 tocaram 1 ainda não

    Grave um vídeo tocando Flight of Icarus e mande pra gente!

    00:00 / 00:00
    outros vídeos desta música
    repetir qualidade Automático
    Outros vídeos desta música
    00:00 / 00:00
    Automático
    OK