Cifra Club

Amigas da Minha Ex

Bruno Carrijo

Cifra: Principal (violão e guitarra)
tom: G#m
[Intro] G#m  E  G#m  E  G#m  

E|------------------------------------------|
B|------------------------------------------|
G|-6/8/6/4---4------------------------------|
D|---------6---6~---------------------------|
A|------------------------------------------|
E|------------------------------------------|

E|------------------------------------------|
B|------------------------------------------|
G|-6/8/6/4---4------------------------------|
D|---------6---6~---------------------------|
A|------------------------------------------|
E|------------------------------------------|

E|------------------------------------------|
B|------------------------------------------|
G|-6/8/6/4----------------------------------|
D|---------6~~------------------------------|
A|------------------------------------------|
E|------------------------------------------|

[Primeira Parte]

G#m                              E                 
  Quando a gente terminou pensei: vou sofrer demais
B                             F#                 G#m
 Mas não durou uma semana, e você ficou prá trás

E|------------------------------------------|
B|------------------------------------------|
G|-6/8/6/4---4------------------------------|
D|---------6---6~---------------------------|
A|------------------------------------------|
E|------------------------------------------|

G#m                      E               
   Agora eu tô solteiro, cheio de moral
B                      F#            
Descobri que você me ajudou, nada mal

[Pré-Refrão]

C#m                                   G#m
 Falava pras amigas que eu era bom de cama
                 E
Agora elas me procuram
                  D#   
Cê aumentou minha fama

[Refrão]

G#m                    E
 Tô pegando todas as amigas da minha ex
B                        F#
Uma, duas, três, quatro, talvez cinco ou seis
G#m                    E
 Tô pegando todas as amigas da minha ex
B                F#             G#m     F#
Entra na fila depois é sua vez

E|------------------------------------------|
B|------------------------------------------|
G|-6/8/6/4---4~~----------------------------|
D|---------6--------------------------------|
A|------------------------------------------|
E|------------------------------------------|

[Solo] G#m  E  B   F#  G#m

[Primeira Parte]

G#m                              E                 
  Quando a gente terminou pensei: vou sofrer demais
B                             F#                 G#m
 Mas não durou uma semana, e você ficou prá trás

G#m                      E               
   Agora eu tô solteiro, cheio de moral
B                      F#            
Descobri que você me ajudou, nada mal

[Pré-Refrão]
        
C#m                                   G#m
 Falava pras amigas que eu era bom de cama
                 E
Agora elas me procuram
                  D#   
Cê aumentou minha fama

[Refrão]
     
G#m                    E
 Tô pegando todas as amigas da minha ex
 B                       F#
Uma, duas, três, quatro, talvez cinco ou seis
G#m                    E
 Tô pegando todas as amigas da minha ex
 B              F#             G#m    
Entra na fila depois é sua vez

E|------------------------------------------|
B|------------------------------------------|
G|-6/8/6/4----------------------------------|
D|---------6~~------------------------------|
A|------------------------------------------|
E|------------------------------------------|

G#m                    E
 Tô pegando todas as amigas da minha ex
 B                       F#
Uma, duas, três, quatro, talvez cinco ou seis
G#m                    E
 Tô pegando todas as amigas da minha ex
 B              F#             G#m
Entra na fila depois é sua vez

[Solo] G#m  E  B  F#  G#m
00:00 / 00:00
Outros vídeos desta música
Repetir
Outros vídeos desta música
Composição de Bruno Carrijo / Carlos Silveira
Colaboração e revisão:
  • Nanais Soares
47 exibições
    • ½ Tom
    • Am
    • Bbm
    • Bm
    • Cm
    • C#m
    • Dm
    • Ebm
    • Em
    • Fm
    • F#m
    • Gm
    • G#m
  • Adicionar à lista

    0 comentários

    Ver todos os comentários

    Entre para oCifra Club PRO

    Tenha acesso a benefícios exclusivos no App e no Site

    • Chega de anúncios

    • Prioridade de compra em lançamentos

    • Mais recursos no app do Afinador

    • Atendimento Prioritário

    • Descontos nos produtos Cifra Club

    • Ajude a produzir mais conteúdo

    00:00 / 00:00

    Cifra Club Pro

    Aproveite o Cifra Club com benefícios exclusivos e sem anúncios
    Cifra Club Pro
    Aproveite o Cifra Club com benefícios exclusivos e sem anúncios
    OK