Cifra Club

Aprenda

Reek Of Putrification

Carcass

Cifra: Principal (violão e guitarra)
Tom: G
Article 3190 of *:
Organization: Freshman, CIT general, Carnegie Mellon, Pittsburgh, PA
Path: *!uunet!*!*!caen!*!*!udel!rochester!*!*!*!hl27+
Newsgroups: *
Message-ID: 
Date: Thu, 22 Oct 1992 21:12:46 -0400
From: Haw Juin Lin 
Subject: Re: thrash
In-Reply-To: 
References: 
Lines: 107

OK then....here's some tab....

This is what I managed to figure out....it may not be correct...but
that's how Iplay it..



-----------------------------------------------------------|-----------------|
-----------------------------------------------------------|-----------------|
-----------4-3-------------------5-----2-----(3)/////////2-|-----------------|
-2-----5-4-4-3-------6-5-4-3-2---5---3-2-6-----------4-3-2-|-----------------|
-2-----5-4-2-1(2)~---6-5-4-3-2---3---3-0-6-----------4-3-0-|-----------------|
-0-----3-2-----------4-3-2-1-0-------1---4-----------2-1---|-----------------|

repeat...


Death, Pull the plug

----------------------------------------------------------------------------|
----------------------------------------------------------------------------|
-------------3-------5-------4----------------------------------------------|
-5-4-----2---3---3---5---5---4----------------------------------------------|
-3-2-5-4-2---1---3---3---5---2----------------------------------------------|
-----3-2-0-------1-------3------2~------------------------------------------|
                               A.H.

repeat four times


----------------------------------------------------------------------------|
----------------------------------------------------------------------------|
------------------------------------------------------------33333333--------|
---------------------------------------------------33333333-33333333--------|
---------------------------------------------------33333333-11111111--------|
-0-0-0-0-7h8-0-0-0-0-5h7-0-0-0-0-3h5-0-0-0-0-2h3h2-11111111-----------------|


Play that fourtimes...but the last time don't play this-----^

----------------------------------------------------------------------------|
----------------------------------------------------------------------------|
----------------------------3-----------------------------------------------|
-2-------2---------3--------3-----------------------------------------------|
-2-------2---------3--------1-----------------------------------------------|
-0---000-0---000---1---111------2~------------------------------------------|
    p.m.     p.m.      p.m.     A.H.


play four times...

-----------------------------------------------------------------------------|
-----------------------------------------------------------------------------|
-----------------------------------------------------------------------------|
---------------------1-------------------------------------------------------|
---3-------2--------------2--------------------------------------------------|
-------2-0-----1-0-----------------------------------------------------------|
  A.H.     A.H.     A.H.


play that four times...

then the solo...which I am not about to even begin to type down....if
anybody really wants it...Email me....and I'll write it out on the
computer..


later

merlin


_______________________________________________________________
XXXXXXXXXXXX      M              Chapel of pure intellectual knowledge
XXXXXXXXXXXX          E
XXXXXOOXXXXX             R
XXXXXOOXXXXX                L           Logic fest on Saturdays.
XXXXXOOXXXXX                    I            Computer passover on Wednesdays
XXXXXOOXXXXX                      N
XXOOOOOOOOXX
XXOOOOOOOOXX
XXXXXOOXXXXX   The Church of Merlin.
XXXXXOOXXXXX          All Donations accepted
XXXXXXXXXXXX
XXXXXXXXXXXX   E-Mail  [*]
                                             Phone Number [412-268-3979]

        Mon-Thur  [10:30 AM to 5:30 AM]
           Fri-Sat [11:30 AM to 6:30 AM]
              Sundays closed.


        Merlin is the unanimical giant of today's society. None can live
without him but none can withstand the pure energy of his essence. From
the debris of evil and the aeons of war and pain, the destruction of the
Good and the annihilation of the Bad, Merlin arises from the ruins of
the once united universe. This is now HIS universe, Merlin's universe....

                                                                [Book of
Jon, 12:55-56]

_______________________________________________________________
437 exibições
    • ½ Tom
    • A
    • Bb
    • B
    • C
    • Db
    • D
    • Eb
    • E
    • F
    • F#
    • G
    • Ab
  • Adicionar à lista

    0 comentários

    Mostrar mais comentários

    Conseguiu tocar?

    0 Tocaram 0 Ainda não

    Grave um vídeo tocando Reek Of Putrification e mande pra gente!

    00:00 / 00:00
    outros vídeos desta música
    repetir qualidade Automático
    Outros vídeos desta música
    00:00 / 00:00
    Automático

    Cifra Club Pro

    Aproveite o Cifra Club com benefícios exclusivos e sem anúncios
    7 dias grátis
    Cifra Club Pro
    Aproveite o Cifra Club com benefícios exclusivos e sem anúncios
    7 dias grátis
    OK