Cifra Club

Aprenda

Le Ciel Dans Une Chambre

Carla Bruni

Cifra: Principal (violão e guitarra)
tom: Bb
[Intro] Bb

Bb           Gm
Quand tu es près de moi
Eb               Bb  F      Bb
  Cette chambre n'a plus de parois
           Gm       Eb              Bb   
Mais des arbres oui, des arbres infinis
     F     Bb            Gm
Et quand tu es tellement près de moi
Eb            Bb    F      Bb
  C'est comme si ce plafond-là
       Gm          Eb           Bb      F      Bb       
Il n'existait plus, je vois le ciel penché sur nous
        Gm 
Qui restons ainsi
Eb       Bb        F    Bb
  Abandonnés tout comme si
         Gm           Eb              Bb        F
Il n'y avait plus rien, non plus rien d'autre au monde
Bb              Gm
J'entends l'harmonica
Eb          Bb       F
  Mais on dirait un orgue
      Bb            Gm
Qui chante pour toi et pour moi
Eb             Bb   F     Eb
  Là-haut dans le ciel infini
         Bb  F      Bb
Et pour toi, et pour moi

Gm
Humm
Eb         Bb  F      Bb
  Et pour toi, et pour moi
Gm     Eb   Bb  F 
Humm

( Bb  Gm  Eb )
( Bb  F  Bb )

E|------------------------------------------------------|
B|-11--13b15r13--11--13b15r13--11-----------------------|
G|------------------------------------------------------|
D|------------------------------------------------------|
A|------------------------------------------------------|
E|------------------------------------------------------|

E|--------------------13--------------------------------|
B|-----11--11/13--11------13b15-------------------------|
G|-10---------------------------------------------------|
D|------------------------------------------------------|
A|------------------------------------------------------|
E|------------------------------------------------------|

E|------------------------------------------------------|
B|-15--15--15--15--15p13------13h15--11-----------------|
G|------------------------15----------------------------|
D|------------------------------------------------------|
A|------------------------------------------------------|
E|------------------------------------------------------|

E|-------------15/13------15/13------15/13------13~-----|
B|-11~--11/15---------15---------15---------15----------|
G|------------------------------------------------------|
D|------------------------------------------------------|
A|------------------------------------------------------|
E|------------------------------------------------------|

E|------------------------------------------------------|
B|-13/15--15/18--13--13/15--11--------------------------|
G|------------------------------------------------------|
D|------------------------------------------------------|
A|------------------------------------------------------|
E|------------------------------------------------------|

E|---------15/13------15/13------15/13------13----------|
B|--11/15---------15---------15---------15------17b18---|
G|--10/15-----------------------------------------------|
D|------------------------------------------------------|
A|------------------------------------------------------|
E|------------------------------------------------------|

Bb       Gm
Quando sei qui con me
Eb              Bb     F    Bb
  Questa stanza non ha piu pareti
  Gm     Eb            Bb
Ma alberi, alberi infiniti
F        Bb        Gm
E quando tu sei vicino a me
Eb          Bb      F     Bb
  Questo soffitto, viola, no
    Gm         Eb          Bb   F       Bb
Non esiste più, e vedo il cielo sopra a noi
        Gm      Eb        Bb   F   Bb
Che restiamo quì, abbandonati come se
        Gm      Eb           Bb        F 
Non ci fosse più niente più niente al mondo
Bb        Gm    Eb             Bb   F
Suona l'armonica, mi sembra un organo
     Bb          Gm       
Che canta per te e per me
Eb         Bb    F       Eb
  Su nell'immensità del cielo
      Bb F     Bb
E per te e per me

Gm
Hum
Eb         Bb  F       Bb
  Et pour toi, et pour moi
Gm     Eb  Bb  F  Bb
Hum
Composição de Carla Bruni / Gino Paoli
Colaboração e revisão:
  • Fabricio Méndez
  • Otávio Júnior
  • Milton Neto
11.630 exibições
    • ½ Tom
    • A
    • Bb
    • B
    • C
    • Db
    • D
    • Eb
    • E
    • F
    • F#
    • G
    • Ab
  • Adicionar à lista

    0 comentários

    Ver todos os comentários

    Conseguiu tocar?

    1 Tocaram 0 Ainda não

    Grave um vídeo tocando Le Ciel Dans Une Chambre e nos envie!

    00:00 / 00:00
    Outros vídeos desta música
    Repetir Qualidade Automático
    Outros vídeos desta música
    00:00 / 00:00
    Automático

    Cifra Club Pro

    Aproveite o Cifra Club com benefícios exclusivos e sem anúncios
    Cifra Club Pro
    Aproveite o Cifra Club com benefícios exclusivos e sem anúncios
    OK