Cifra Club

Aprenda

Uma Criança Com Seu Olhar

Carlinhos Brown

Cifra: Principal (violão e guitarra)
tom: Ab
Introdução (RIFF 1 e RIFF 2)

Riff 1|

E||-------------------------------------------------------------------------------------------|
B||-4----4----4----4--------------------------------------------------------------------------|
G||-3----3----3----3-----3----3----5----5----5-------5----6----6------------------------------|
D||----------------------1----1----6----6----6-------6----5----5------------------------------|
A||----------------3--------------------------------------------------------------------------|
E||-6----4----4----------3----3----4----4----4-------4----4----4------------------------------|

E||-------------------------------------------------------------------------------------------|
B||-4----4----4----4--------------------------------------------------------------------------|
G||-3----3----3----3-----3----3----5----5----5-------5----6----6------------------------------|
D||----------------------1----1----6----6----6-------6----5----5------------------------------|
A||----------------3--------------------------------------------------------------------------|
E||-6----4----4----------3----3----4----4----4-------4----4----4------------------------------|

Riff 2|

E||-------------------------------------------------------------------------------------------|
B||-------------------------------------------------------------------------------------------|
G||--7-8---5--------10(~)8----3----------3--5-------5---------3--5-------5--------------------|
D||---------6-------------------1-------------------------------------------------------------|
A||-------------------------------------------------------------------------------------------|
E||-6----4----4----8--------3----3-----4------4------------4-------4--------------------------|

E||-------------------------------------------------------------------------------------------|
B||-------------------------------------------------------------------------------------------|
G||--7-8---5--------12(~)8----3----------3--5-------5---------3--5-------5--------------------|
D||---------6-------------------1-------------------------------------------------------------|
A||-------------------------------------------------------------------------------------------|
E||-6----4----4----8--------3----3-----4------4------------4-------4--------------------------|

RIFF 2
Aqui estou na difícil missão de levar a você       
Uma mensagem que possa ser                         
Como uma luz ou um mantra, nós não somos mais crianças 

RIFF 1
Um dia acontece, a gente tem que crescer                              
Temos que encarar a responsa 
Eu não deixei de achar graça nas coisas 

RIFF 2
Simplesmente hoje eu quero ser levado a sério 
As coisas mudam sempre mas a vida não é só como eu espero 

RIFF 1
Existe um dom natural que todos temos 
Nossas escolhas vão dizer pra onde iremos 

RIFF 1 (***)com solinho(***) 
Mas se for pra falar de algo bom 
Eu sempre vou lembrar de você 
Difícil não lembrar do que nunca se esqueceu 
Fácil perceber que seu amor é meu 

RIFF 1
Difícil não lembrar do que nunca esqueceu 
Fácil perceber que meu amor é seu 

(RIFF 2)

RIFF 2
Eu quero estar amanhã ao seu lado quando você acordar 
Eu quero estar amanhã sossegado e continuar a te amar 
Eu quero um sonho realizado, uma criança com seu olhar 
Eu quero estar sempre ao seu lado, você me traz paz 

(RIFF 1)

RIFF 1
Aqui estou na difícil missão de levar a você                  
Uma mensagem que possa ser                          
Como uma luz ou um mantra, nós não somos mais crianças 

RIFF 1
Um dia acontece, a gente tem que crescer                              
Temos que encarar a responsa 
Eu não deixei de achar graça nas coisas

RIFF 2
Simplesmente hoje eu quero ser levado a sério 
As coisas mudam sempre mas a vida não é só como eu espero 

RIFF 2
Eu quero estar amanhã ao seu lado quando você acordar 
Eu quero estar amanhã sossegado e continuar a te amar 
Eu quero um sonho realizado, uma criança com seu olhar 
Eu quero estar sempre ao seu lado, você me traz paz

(RIFF 2)

finaliza...

(***)solinho(***)
2x com o riff 1

E||-------------------------------------------------------------------------------------------|
B||-------------------------------------------------------------------------------------------|
G||--------------7----------------------------------------------------------------------------|
D||-----8-----------8---------10--10-------10--10---------------------------------------------|
A||-10----------------------------------------------------------------------------------------|
E||-------------------------------------------------------------------------------------------|

Gostaria de dedicar essa cifra ao meu pai que foi quem me apresentou ela! Valeu Pai!!! hehe
Colaboração e revisão:
  • Rodrigo Giovanelli
12.664 exibições
    • ½ Tom
    • A
    • Bb
    • B
    • C
    • Db
    • D
    • Eb
    • E
    • F
    • F#
    • G
    • Ab
  • Adicionar à lista

    0 comentários

    Ver todos os comentários

    Conseguiu tocar?

    0 Tocaram 0 Ainda não

    Grave um vídeo tocando Uma Criança Com Seu Olhar e nos envie!

    00:00 / 00:00
    outros vídeos desta música
    repetir qualidade Automático
    Outros vídeos desta música
    00:00 / 00:00
    Automático

    Cifra Club Pro

    Aproveite o Cifra Club com benefícios exclusivos e sem anúncios
    Cifra Club Pro
    Aproveite o Cifra Club com benefícios exclusivos e sem anúncios
    OK