Cifra Club

Demoliendo Hoteles

Charly Garcia

Cifra: Principal (violão e guitarra)
tom: F
[                         Riff 1]
   P.M. . . . . . . . . . . . . . . . . . . . . . . . . 
E|-----------------------------------------------------|
B|-----------------------------3-----------------------|
G|--5--5--5--5--5--5--5--5-----3-----------------------|
D|--5--5--5--5--5--5--5--5-----3-----------------------|
A|--3--3--3--3--3--3--3--3-----3-----------------------|
E|-----------------------------------------------------|
                         Riff 2 
E|--10--10--10--10--10--8------------------------------|
B|--10--10--10--10--10--8------------------------------| X2
G|-----------------------------------------------------|
D|-----------------------------------------------------|
A|-----------------------------------------------------|
E|-----------------------------------------------------|
[          Riff 1]
Yo que crecí con Videla
yo que nací sin poder
yo que luché por la libertad
pero nunca la pude tener,
yo que viví entre fachistas
yo que morí en el altar
yo que crecí con los que estaban bien
pero a la noche estaba todo mal.


             Bb  F  C           Riff 2
Hoy paso el tiempo demoliendo hoteles
             Bb  F               C             Riff 2 
mientras los plomos juntan los cables cazan rehenes.

             Bb  F  C           Riff 2
Hoy paso el tiempo demoliendo hoteles
             Bb  F               C             F
mientras los chicos allá en la esquina pegan

                           carteles.
[          Riff 1]
Yo fui educado con odio
y odiaba a la humanidad
un día me fui con los hippies y
tuve un amor y también mucho más
Ahora no estoy más tranquilo
por qué tendría que estar,
todos crecimos sin entender
y todavía me siento un anormal.
00:00 / 00:00
Outros vídeos desta música
Repetir
Outros vídeos desta música
Composição de Charly García
Colaboração e revisão:
  • Tomasino Bernardelli
  • Divergência
33.930 exibições
    • ½ Tom
    • A
    • Bb
    • B
    • C
    • Db
    • D
    • Eb
    • E
    • F
    • F#
    • G
    • Ab
  • Adicionar à lista

    0 comentários

    Ver todos os comentários

    Entre para oCifra Club PRO

    Tenha acesso a benefícios exclusivos no App e no Site

    • Chega de anúncios

    • Prioridade de compra em lançamentos

    • Mais recursos no app do Afinador

    • Atendimento Prioritário

    • Descontos nos produtos Cifra Club

    • Ajude a produzir mais conteúdo

    00:00 / 00:00

    Cifra Club Pro

    Aproveite o Cifra Club com benefícios exclusivos e sem anúncios
    Cifra Club Pro
    Aproveite o Cifra Club com benefícios exclusivos e sem anúncios
    OK