Cifra Club

Aprenda

Time Consumer

Coheed And Cambria

Tab de baixo: Principal
Tabbed By : Xcrimson_ghostX
e-mail: skawful27

Tuning: drop d

Intro part 1
G|----------------------------------------|--------------------------------|
D|----7-------7--------7------------------|--------------------------------|
A|5~-----5*-55--555~55---5-7878-7h8p7-----|----8~----------------55-7-878--|
D|------------------------------------10~-|-8~----88-7*-5*-3*-0/5----------|

G|--------------------------------------------|-----------------------------|
D|--------------------------------------------|-----------------------------|    
A|----8~-------878/10~---10~------------12----|-----------------------------|    
D|8~------8-88--------10~---1010~-10/12~--12--|5~~~~~~~10~~~~~~~0~~~~~~~----|

Intro part 2
G|----------------------------------------|--------------------------------|
D|----7-------7--------7------------------|--------------------------------|
A|5~-----5*-55--555~55---5-7878-7h8p7-----|----8~----------------55-7-878--|
D|------------------------------------10~-|-8~----88-7*-5*-3*-0/5----------|

G|--------------------------------------------|------------------------------|
D|--------------------------------------------|------------------------------|    
A|----8~-------878/10~---10~------------12----|------------------5~~~~~~~----|    
D|8~------8-88--------10~---1010~-10/12~--12--|-5~~~~~~~10~~~~~~~------------|

Intro part 3
G|--------------------------------------|----------------------------------------|
D|--------------------7--7*---7---------|----------------------------------------|
A|--5*5*5*-5/0--5*5*5*-5*---5*--5/7878--|-------------------------5/7h8p7h8/1087-|
D|--------------------------------------|8*8*8*8/0--8*8*8*8/0--0~~~~~~~----------|

G|----------------------------------------|
D|---------7---------7---------7----------|
A|--5*5*5*----5*5*5*----5*5*5*------------|
D|-------------------------------0~~~~~~~~|

Verse
G|-------------------------------------||-------------------------------------|
D|-------------------------------------||-------------------------------------|
A|-------------------8887778887778-----||-------------------8887778887771087--|
D|--88-88-88-88-88-8*-------------10~--||--88-88-88-88-88-8*------------------|

Last Verse Before Chorus
G|--------------------------------|
D|--------------------------------|
A|--------------------8~~~7~~~----|
D|--88-88-88-88-88-8*-------------|

Chorus
G|---------------------2--2-------------|----------------------------------|
D|--------------------0-00-0--02222333--|----------------------------------|
A|--------------------------------------|--11-11-1111-11-11-111111-11-0----|
D|--33333333222233330~~~~~~~------------|-------------------------------5--|

G|--------------------2--2------------|----------22>-------------22>-----|
D|----------022222230--00-0002222333--|--55>5333>---0000>55>5333>--------|
A|------------------------------------|-----------------------------0----|
D|--33333333--------------------------|-------------------------------5--|

G|-------------------|
D|-------------------|
A|-------------------|
D|--3~~~3332~3~2~0~~~|

Bridge 2X
G|--------|---------------------------------|
D|--------|---------------------------------|
A|--3-----|---------------------------------| 
D|--------|--3---3-33355-5-5-33-33-55-00-0--|

G|------------------------------------|
D|------------------------------------|
A|-----------------------------5--5---|
D|--3-3-3-33355-5-5-33-33-55-00-00-0--|

G|--------|-----------------------------------------------------|
D|--------|-----------------------------------------------------|
A|--3-----|------------------55-55-55-55-55--55-55-55-55-55-----|
D|--------|--3-3-3-33355-5-5---------------------------------0~~|

Second Intro 2X

After Second Intro:
G|----------------------------------|
D|----7--------7-------7------------|
A|5--------55-5----55-5----55-5-78--|
D|----------------------------------|

G|------------------------------------|
D|-----------------------0>-----------|
A|------10-------10------------78787--|
D|--8-88-----88-8---------------------|
Composição de Coheed and Cambria
491 exibições

0 comentários

Ver todos os comentários

Conseguiu tocar?

0 Tocaram 0 Ainda não

Grave um vídeo tocando Time Consumer e nos envie!

00:00 / 00:00
Outros vídeos desta música
Repetir Qualidade Automático
Outros vídeos desta música
00:00 / 00:00
Automático

Cifra Club Pro

Aproveite o Cifra Club com benefícios exclusivos e sem anúncios
Cifra Club Pro
Aproveite o Cifra Club com benefícios exclusivos e sem anúncios
OK