Cifra Club

Aprenda

No World For Tomorrow Intro

Coheed And Cambria

Cifra: Principal (violão e guitarra)
tom: C
Tabbed by: ghis
Email:

Tuning: dropped D

here's an alternate way to play the main riff of no world for tomorrow(vs. the 1st 
tab)...don't forget to drop it in D

e|---------------------------------------------------------------------------|
B|---------------------------------------------------------------------------|
G|--------------------------------------------------------------3-p-2-p-0----|
D|---------7-p-0-0-5-p-0---2-p-0--------------------------2-3-0--------------|
A|-0-h-5-------------------------0-3-/-5---7(bend1/2)-5----------------------|
D|----------------------------------------(+)--------------------------------|

e|---------------------------------------------------------------------------|
B|---------------------------------------------------------------------------|
G|----------3-p-2-p-0--------------------------------------------------------|
D|3-p-2-p-0-----------3-p-2-p-0----------------------------------------------|
A|----------------------------------------0-h-3-p-0-3-p-0--------------------|
D|------------------------------0-h-3-h-5-----------------5-3-0--------------|


| /  slide up
| \  slide down
| h  hammer-on
| p  pull-off
| ~  vibrato
| +  harmonic
| x  Mute note
===============================================================================
Compositor não encontrado.
468 exibições
    • ½ Tom
    • A
    • Bb
    • B
    • C
    • Db
    • D
    • Eb
    • E
    • F
    • F#
    • G
    • Ab
  • Adicionar à lista

    0 comentários

    Ver todos os comentários

    Conseguiu tocar?

    0 Tocaram 0 Ainda não

    Grave um vídeo tocando No World For Tomorrow Intro e nos envie!

    00:00 / 00:00
    Outros vídeos desta música
    Repetir Qualidade Automático
    Outros vídeos desta música
    00:00 / 00:00
    Automático

    Cifra Club Pro

    Aproveite o Cifra Club com benefícios exclusivos e sem anúncios
    Cifra Club Pro
    Aproveite o Cifra Club com benefícios exclusivos e sem anúncios
    OK