Cifra Club

Green River

Creedence Clearwater Revival

Cifra: Principal (violão e guitarra)
Selo Cifra Club: esta cifra foi revisada para atender aos critérios oficiais da nossa Equipe de Qualidade.
tom: C
[Tab - Primeira Parte]

E|------------------------------------------|
B|-------2/3--3-3-3---2/3--3-3-3------------|
G|-------3/4--4-4-4---3/4--4-4-4---0h2-0----|
D|--(2)-------------------------------------|
A|--(2)-------------------------------------|
E|---0--------------------------------------|

E|------------------------------------------|
B|------------------------------------------|
G|------------------------------------------|
D|--0h2--2------0-2----2-----0-2------------|
A|---------0h2-----------0h2----------------|
E|------------------------------------------|

E|------------------------------------------|
B|--2/3--3-3-3---2/3--3-3-3-----------------|
G|--3/4--4-4-4---3/4--4-4-4---0h2-0---------|
D|------------------------------------------|
A|------------------------------------------|
E|------------------------------------------|

E|------------------------------------------|
B|------------------------------------------|
G|------------------------------------------|
D|--0h2--2------0-2----2-----0-2------------|
A|---------0h2-----------0h2----------------|
E|------------------------------------------|

E|-----------------------0------------------|
B|------------------------------------------|
G|-------------------2b4--------------------|
D|------------0h2p0h2-----------------------|
A|------------------------------------------|
E|------------------------------------------|

E|------------------------------------------|
B|--2/3--3-3-3---2/3--3-3-3-----------------|
G|--3/4--4-4-4---3/4--4-4-4---2-0-----------|
D|------------------------------------------|
A|------------------------------------------|
E|------------------------------------------|

E|-----------------------0------------------|
B|------------------------------------------|
G|--------------------2b4-------------------|
D|------------0h2p0h2-----------------------|
A|------------------------------------------|
E|------------------------------------------|

E|------------------------------------------|
B|--2/3--3-3-3---2/3--3-3-3-----------------|
G|--3/4--4-4-4---3/4--4-4-4---2-0-----------|
D|------------------------------------------|
A|------------------------------------------|
E|------------------------------------------|

E7
 Stopping at the log where catfish bite
C
 Walking along the river road at night
A
 Barefoot girls dancing

E|------------------------------------------|
B|------------------------------------------|
G|------------------------------------------|
D|------------------------------------------|
A|-------0-----1-----2----------------------|
E|------------------------0-----------------|

E|-----------------------------0---------------------|
B|--2/3--3-3-3---2/3--3-3-3~---0---------------------|
G|--3/4--4-4-4---3/4--4-4-4~-------------------------|
D|---------------------------------------------------|
A|---------------------------------------------------|
E|---------------------------------------------------|

E|------0---------------------------------0----------|
B|-----------2/3--3-3-3---2/3---3--------------------|
G|---2b4-----3/4--4-4-4---3/4---4---2--0h1-----------|
D|-------------------------------------------0h2p0h2-|
A|---------------------------------------------------|
E|---------------------------------------------------|

E|------0---------------------------------0----------|
B|-----------2/3--3-3-3---2/3---3--------------------|
G|---2b4-----3/4--4-4-4---3/4---4---2--0h1-----------|
D|---------------------------------------------------|
A|---------------------------------------------------|
E|---------------------------------------------------|

E7
  Love to kick my feet way down the shallow water
C
  Shoefly dragonfly get back to your mother
A
  Pick up a flat rock skip it

E|-------------------------------------------|
B|-------------------------------------------|
G|-------------------------------------------|
D|-------------------------------------------|
A|-------0-----1-----2-----------------------|
E|------------------------0------------------|

E|---------------------------------------------------|
B|--2/3--3-3-3---2/3--3-3-3---5----------------------|
G|--3/4--4-4-4---3/4--4-4-4---4----------------------|
D|---------------------------------------------------|
A|---------------------------------------------------|
E|---------------------------------------------------|

[Tab - Solo]

[Guitarra 1)

Parte 1 De 4
E|---------------------------------------------------|
B|--3/5~~---5-3-0------------------------------------|
G|----------------2-0------2b3--2b3-r2-0-------------|
D|--------------------2~-------------------2-----2~--|
A|-------------------------------------------0h2-----|
E|---------------------------------------------------|

Parte 2 De 4
E|---------------------------------------------------|
B|---------------------------------------------------|
G|--2b3--2b3--2b3--r2--0-----------------------------|
D|-----------------------------2---------------------|
A|-------------------------0h2-----------------------|
E|---------------------------------------------------|

Parte 3 De 4
E|---------------------------------------------------|
B|---------------------------------------------------|
G|--2b3--2b3-b3r2--0---------------------------------|
D|---------------------2-------2---------------------|
A|-------------------------0h2-----------------------|
E|---------------------------------------------------|

Parte 4 De 4
E|---------------------------------------------------|
B|---------------------------------------------------|
G|---0~---2b3---0-------------------2-0---2b3r2-0~~--|
D|-2----2-----2---2~~--0h2-0h2--0-2-2-2---2----------|
A|---------------------------------------------------|
E|---------------------------------------------------|

[Guitarra 2]

    Parte 1  |  Parte 2   |  Parte 3   |  Parte 4
E|-----------|--------12--|--------12--|--------12~--|
B|-----------|--15b17-----|--15b17-----|--15b17~-----|
G|-----------|------------|------------|-------------|
D|-----------|------------|------------|-------------|
A|-----------|------------|------------|-------------|
E|-----------|------------|------------|-------------|

[Tab - Segunda Parte]

E|---------------------------------------------------|
B|--2/3--3-3-3---2/3--3-3-3---5----------------------|
G|--3/4--4-4-4---3/4--4-4-4---4----------------------|
D|---------------------------------------------------|
A|---------------------------------------------------|
E|---------------------------------------------------|

                  ↓ ↑  ↓ ↑         
E|----------------7-7--7-7----------------0----------|
B|-----------5----8-8--8-8---5-5---------------------|
G|-----------4---------------4-4---2--0h1------------|
D|--0h2p0h2------------------------------------------|
A|---------------------------------------------------|
E|---------------------------------------------------|

                  ↓ ↑  ↓ ↑               
E|----------------7-7--7-7-----------------0---------|
B|--------5--5----8-8--8-8----5-5--------------------|
G|--------4--4----------------4-4---2--0h1-----------|
D|---------------------------------------------------|
A|---------------------------------------------------|
E|---------------------------------------------------|

            E7
  JUNIOR took me over
E|---------------------|
B|---------------------|
G|---------------------|
D|--0h2p0h2------------|
A|---------------------|
E|---------------------|

C
  Said, you’re gonna find the world is smoldering
A
  And if you get lost

E|-------------------------------------------|
B|-------------------------------------------|
G|-------------------------------------------|
D|-------------------------------------------|
A|-------0-----1-----2-----------------------|
E|------------------------0------------------|
                                  
E|---------------------------------------------------|
B|--2/3--3-3-3---2/3--3-3-3~---5---------------------|
G|--3/4--4-4-4---3/4--4-4-4~---4---------------------|
D|---------------------------------------------------|
A|---------------------------------------------------|
E|---------------------------------------------------|

E|------------------------------12--12---------------|
B|--3/5~~---5-3-0---------15b17-------15-12----------|
G|----------------2-0----------------------14-12~----|
D|--------------------2~-------------------------14--|
A|---------------------------------------------------|
E|---------------------------------------------------|

E|--------12--12---------------|----------12---------|
B|--15b17-------15-12----------|-----15b17-----------|
G|-------------------14-12~----|---------------------|
D|-------------------------14--|---------------------|
A|-----------------------------|---------------------|
E|-----------------------------|---------------------|

      ↓ ↑  ↓ ↑   ↓ ↑  ↑    ↓  ↓ ↑  ↑  ↓ ↓   ↓  ↑  ↓
E|----7-7--7-7---7-7--7~---7--7-7--7--------------0--|
B|----8-8--8-8---8-8--8~---8--8-8--8--5-5------------|
G|------------------------------------4-4---2--0h1---|
D|---------------------------------------------------|
A|---------------------------------------------------|
E|---------------------------------------------------|

E|----7-7--7-7--------7-7--7-7----0~-|---------------|
B|----8-8--8-8---5----8-8--8-8----0~-|-3--3-3--------|
G|---------------4-------------------|-1--1-1--------|
D|-----------------------------------|------2--------|
A|-----------------------------------|---------0-----|
E|-----------------------------------|-----------3---|
00:00 / 00:00
Outros vídeos desta música
Repetir
Outros vídeos desta música
183.728 exibições
    • ½ Tom
    • A
    • Bb
    • B
    • C
    • Db
    • D
    • Eb
    • E
    • F
    • F#
    • G
    • Ab
  • Adicionar à lista

Afinação da cifra

Afinador online

    0 comentários

    Ver todos os comentários

    Entre para o Cifra Club PRO

    Tenha acesso a benefícios exclusivos no App e no Site

    • Chega de anúncios

    • Mais recursos no app do Afinador

    • Atendimento Prioritário

    • Aumente seu limite de lista

    • Ajude a produzir mais conteúdo

    00:00 / 00:00

    Cifra Club Pro

    Aproveite o Cifra Club com benefícios exclusivos e sem anúncios
    Cifra Club Pro
    Aproveite o Cifra Club com benefícios exclusivos e sem anúncios
    OK