Cifra Club

Suzie Q

Creedence Clearwater Revival

Cifra: Principal (violão e guitarra)
Selo Cifra Club: esta cifra foi revisada para atender aos critérios oficiais da nossa Equipe de Qualidade.
tom: E
[Intro] E7

[Tab - Intro]

E|------------------------------------------|
B|---3--------------------------------------|
G|-----2-0----------------------------------|
D|-----------0-2-2-------0------------------| (3x)
A|-----------------0h1h2--------------------|
E|-0-0-0---0---0-0--------3b----------------|

E|------------------------------------------|
B|---3--------------------------------------|
G|-----2-0----------------------------------|
D|-----------0-2----------------------------|
A|------------------------------------------|
E|-0-0-0---0---0----------------------------|

[Tab - Riff 1]

E|------------------------------------------|
B|---3--------------------------------------|
G|-----2-0----------------------------------|
D|----------0h2-----------------------------|
A|------------------------------------------|
E|------------------------------------------|

[Primeira Parte]

         E7 Riff 1
Oh Suzie Q, Oh Suzie Q
         A   Riff 1      C     B    E7  Riff 1
Oh Suzie Q, baby I love you,  Suzie Q
                        Riff 1
I like the way you walk
                        Riff 1
I like the way you talk
                    A 
I like the way you walk
                    C     B    E7  Riff 1
I like the way you talk, Suzie Q

( E7  A  C  B  E7 )
( E7  A  C  B  E7 )

[Tab - Interlúdio]

E|------------------------------------------|
B|---3--------------------------------------|
G|-----2-0----------------------------------|
D|-----------0-2-2-------0------------------| (3x)
A|-----------------0h1h2--------------------|
E|-0-0-0---0---0-0--------3b----------------|

E|------------------------------------------|
B|---3--------------------------------------|
G|-----2-0----------------------------------|
D|-----------0-2----------------------------|
A|------------------------------------------|
E|-0-0-0---0---0----------------------------|

[Segunda Parte]

                              E7  Riff 1
Well, say that you'll be true
                        Riff 1
Say that you'll be true
                     A 
Say that you'll be true
                     C    B    E7  Riff 1
And never leave me blue, Suzie Q
                             Riff 1
Well say that you'll be mine
                        Riff 1
Say that you'll be mine
                    A 
Say that you'll be mine
              C     B    E7  Riff 1
Baby all the time, Suzie Q

[Tab - Interlúdio]

E|------------------------------------------|
B|---3--------------------------------------|
G|-----2-0----------------------------------|
D|-----------0-2-2-------0------------------| (3x)
A|-----------------0h1h2--------------------|
E|-0-0-0---0---0-0--------3b----------------|

E|------------------------------------------|
B|---3--------------------------------------|
G|-----2-0----------------------------------|
D|-----------0-2----------------------------|
A|------------------------------------------|
E|-0-0-0---0---0----------------------------|

[Terceira Parte]

          E7 Riff 1      Riff 1
Oh, Susie Q, Oh, Susie Q
          A               C    B    E7  Riff 1
Oh, Susie Q, baby I love you, Suzie Q
                        Riff 1
I like the way you walk
                        Riff 1
I like the way you talk
                    A 
I like the way you walk
                    C     B    E7  Riff 1
I like the way you talk, Susie Q
          Riff 1       Riff 1
Oh, Suzie Q, Oh, Suzie Q
          A          C         B    E7  Riff 1
Oh, Suzie Q, baby I love you, Suzie Q

[Final] E7  D  C  Em
        D  C  G  Em
00:00 / 00:00
Outros vídeos desta música
Repetir
Outros vídeos desta música
131.292 exibições
    • ½ Tom
    • A
    • Bb
    • B
    • C
    • Db
    • D
    • Eb
    • E
    • F
    • F#
    • G
    • Ab
  • Adicionar à lista

Afinação da cifra

Afinador online

    0 comentários

    Ver todos os comentários

    Entre para o Cifra Club PRO

    Tenha acesso a benefícios exclusivos no App e no Site

    • Chega de anúncios

    • Mais recursos no app do Afinador

    • Atendimento Prioritário

    • Aumente seu limite de lista

    • Ajude a produzir mais conteúdo

    00:00 / 00:00

    Cifra Club Pro

    Aproveite o Cifra Club com benefícios exclusivos e sem anúncios
    Cifra Club Pro
    Aproveite o Cifra Club com benefícios exclusivos e sem anúncios
    OK