Notificações Amigos pendentes

      Darkbuster

      Cheap Wine

      247 exibições
      Tom: C#
      22 Songs That You Will Never Wanna Hear Again
      
      Intro:
      -------|
      -------|
      ---6---|
      ---6---|
      ---4---| x16
      -------|
      
      Verse/Chorus:
      
      ---------------------------------------------------------------------|
      ---------------------------------------------------------------------|
      ---6-6-6-6-6-6-6-6-----------------6-6-6-6-6-6-6-6-------------------|
      ---6-6-6-6-6-6-6-6-4-4-4-4-4-4-4-4-6-6-6-6-6-6-6-6-6-6-6-6-6-6-6-6---|
      ---4-4-4-4-4-4-4-4-4-4-4-4-4-4-4-4-4-4-4-4-4-4-4-4-6-6-6-6-6-6-6-6---|
      -------------------2-2-2-2-2-2-2-2-----------------4-4-4-4-4-4-4-4---|
      

      Comentários 0

      140 .
      140 cancelar

      conseguiu tocar?

      covers

      Grave um vídeo tocando Cheap Wine e mande pra gente!

      Ex.: http://www.youtube.com/watch?v=0IvSvIwGdwk
      ver covers de outras músicas »
      0:00 / 0:00

      Capítulos

        1 versão de violão dificuldade exibições contribuição e correção
        1 versão de guitarra dificuldade exibições contribuição e correção
        1 versão de cavaco dificuldade exibições contribuição e correção
        1 versão de teclado dificuldade exibições contribuição e correção
        play/pausefechar subir/descer velocidade
        6ª corda E5ª corda A4ª corda D3ª corda G2ª corda B1ª corda E
          acordes
          publicidade
          fechar
          ok