Cifra Club

Dope Road

Days Of The New

Cifra: Principal (violão e guitarra)
Selo Cifra Club: esta cifra foi revisada para atender aos critérios oficiais da nossa Equipe de Qualidade.
tom: G
E|E|-------------------------------------------------------------------------------||
                         C PE ROAD - Days Of The New
E|E|-------------------------------------------------------------------------------||
Tabbed by: Dalibor Lekic

Tuning: E A D F# B D


Intro:

D |---------------------------------0----------------------------------------------------------------|
B |-------0-------------------------------0-------------------------0--------------------------------|
F#|---------0---0---------------------0-----------------------0---0---------------------0------------|
D |-----------0-------------------------0-----------------------0-------------------------0----------|
A |E|E|-------------------------------------------------------------------------------||-------------------|
E |---5/7----------5-7-7\--0-0-5--7----------5-7-7\--0-0-5--7----------5-7-7\--0-0-5--7------7-5-0---|


Verse:

D |-------------------------------0--------------------------------------------------------------------------|
B |-----------0-------------------------0-------------------------0-------------------------0----------------|
F#|-------0-------------------------0-----------------------0---0---------------------0---0------------------|
D |-----0---0-------------------------0-----------------------0-------------------------0--------------------|
A |E|E|-------------------------------------------------------------------------------||---------------------------|
E |---7----------5-7-7\--0-0-5--7----------5-7-7\--0-0-5--7----------5-7-7\--0-0-5--7----------5-7-7\--0-0-5-|


Pre-chorus:

E|------------------------------------------2-----0-2p0-0-0-0-2---|
B|--------------------------------------------3---3-3---3-3-3-3---|
G|---------0----------------------0-------------0-0-0---0-0-0-0---|
D|-----0---------0------------0-------------------0-0---0-0-0-0---|
A|------------------------------------------------x-x---x-x-x-x---|
E|---7---7---5-7---5-7-5-7--7---7---5-7-5-2-------3-3---3-3-3-3---|

E|------------------------------------------2-----0-2p0-0-0-0-2---|
B|--------------------------------------------3---3-3---3-3-3-3---|
G|---------0----------------------0-------------0-0-0---0-0-0-0---|
D|-----0---------------------0--------------------0-0---0-0-0-0---|
A|------------------------------------------------x-x---x-x-x-x---|
E|---7---7---5-7-7\-0-0-5--7---7----5-7-5-2-------3-3---3-3-3-3---|


Chorus:

E|---0-7-7-7-5-4-x-0-2p0-0-0-0-0-0-x-0-9-7-7-5-4-x-0-2p0-0-0-0-0---0-----|
B|---7-7-7-7-7-5-5-3-3---3-3-3-3-3-5-7-7-7-7-7-5-5-3-3---0-2-0-2p0-2p0---|
G|---0-0-0-0-0-0-0-0-0---0-0-0-0-0-0-0-0-0-0-0-0-0-0-0---3-3-3-3---3-----|
D|---0-0-0-0-0-0-0-0-0---0-0-0-0-0-0-0-0-0-0-0-0-0-0-0---0-0-0-0---0-----|
A|---x-x-x-x-----x-x-x---x-x-x-x-x-x-x-x-x-x-----x-x-x---x-x-x-x---x-----|
E|---7-7-7-7-----5-3-3---3-3-3-3-3-5-7-7-7-7-----5-3-3---3-3-3-3---3-----|

E|---0-9-7-7-5-4-x-0-2p0-0-0-0-0-0-x-0-9-7-7-5-4-x-0--0-------------------------|
B|---7-7-7-7-7-5-5-3-3---3-3-3-3-3-5-7-7-7-7-7-5-5-3--0--0---0-3-3--3-3---------|
G|---0-0-0-0-0-0-0-0-0---0-0-0-0-0-0-0-0-0-0-0-0-0-0--3----3---0-0--0-0---------|
D|---0-0-0-0-0-0-0-0-0---0-0-0-0-0-0-0-0-0-0-0-0-0-0--0--------0-0--0-0---------|
A|---x-x-x-x-----x-x-x---x-x-x-x-x-x-x-x-x-x-----x-x--x-------------------------|
E|---7-7-7-7-----5-3-3---3-3-3-3-3-5-7-7-7-7-----5-3--3-------------------5-6---|


Verse:

D |E|E|-------------------------------------------------------------------------------||---------------------------|
B |-----0-------------------------0-------------------------------0-------------------------0----------------|
F#|-------0---0---------------------0---0-------------------0---0---------------------0---0------------------|
D |---------0-------------------------0-----------------------0-------------------------0--------------------|
A |E|E|-------------------------------------------------------------------------------||---------------------------|
E |---7----------5-7-7\--0-0-5--7----------5-7-7\--0-0-5--7----------5-7-7\--0-0-5--7----------5-7-7\--0-0-5-|

D |E|E|-------------------------------------------------------------------------------||---------------------------|
B |-----------0-------------------------0-------------------------0-------------------------0----------------|
F#|-----0---0---------------------0---0---------------------0---0---------------------0---0------------------|
D |-------0-------------------------0-------------------------0-------------------------0--------------------|
A |E|E|-------------------------------------------------------------------------------||---------------------------|
E |---7----------5-7-7\--0-0-5--7----------5-7-7\--0-0-5--7----------5-7-7\--0-0-5--7----------5-7-7\--0-0-5-|


Pre-chorus:

E|------------------------------------------2-----0-2p0-0-0-0-2---|
B|--------------------------------------------3---3-3---3-3-3-3---|
G|---------0----------------------0-------------0-0-0---0-0-0-0---|
D|-----0---------0------------0-------------------0-0---0-0-0-0---|
A|------------------------------------------------x-x---x-x-x-x---|
E|---7---7---5-7---5-7-5-7--7---7---5-7-5-2-------3-3---3-3-3-3---|

E|------------------------------------------2-----0-2p0-0-0-0-2---|
B|--------------------------------------------3---3-3---3-3-3-3---|
G|---------0----------------------0-------------0-0-0---0-0-0-0---|
D|-----0---------------------0--------------------0-0---0-0-0-0---|
A|------------------------------------------------x-x---x-x-x-x---|
E|---7---7---5-7-7\-0-0-5--7---7----5-7-5-2-------3-3---3-3-3-3---|


Chorus:

E|---0-7-7-7-5-4-x-0-2p0-0-0-0-0-0-x-0-9-7-7-5-4-x-0-2p0-0-0-0-0---0-----|
B|---7-7-7-7-7-5-5-3-3---3-3-3-3-3-5-7-7-7-7-7-5-5-3-3---0-2-0-2p0-2p0---|
G|---0-0-0-0-0-0-0-0-0---0-0-0-0-0-0-0-0-0-0-0-0-0-0-0---3-3-3-3---3-----|
D|---0-0-0-0-0-0-0-0-0---0-0-0-0-0-0-0-0-0-0-0-0-0-0-0---0-0-0-0---0-----|
A|---x-x-x-x-----x-x-x---x-x-x-x-x-x-x-x-x-x-----x-x-x---x-x-x-x---x-----|
E|---7-7-7-7-----5-3-3---3-3-3-3-3-5-7-7-7-7-----5-3-3---3-3-3-3---3-----|

E|---0-9-7-7-5-4-x-0-2p0-0-0-0-0-0-x-0-9-7-7-5-4-x-0--0-------------------------|
B|---7-7-7-7-7-5-5-3-3---3-3-3-3-3-5-7-7-7-7-7-5-5-3--0--0---0-3-3--3-3---------|
G|---0-0-0-0-0-0-0-0-0---0-0-0-0-0-0-0-0-0-0-0-0-0-0--3----3---0-0--0-0---------|
D|---0-0-0-0-0-0-0-0-0---0-0-0-0-0-0-0-0-0-0-0-0-0-0--0--------0-0--0-0---------|
A|---x-x-x-x-----x-x-x---x-x-x-x-x-x-x-x-x-x-----x-x--x-------------------------|
E|---7-7-7-7-----5-3-3---3-3-3-3-3-5-7-7-7-7-----5-3--3-------------------5-3---|

Bridge:

E|----------------------------------------------------|
B|------------------------------------------3-3-0-0---|
G|---2-3-5-5-5-5--2-3-5-5-3h5p3-0--2-3-5-5--0-0-3-3---|
D|---0-0-0-0-0-0--0-0-0-0----------0-0-0-0--0-0-0-0---|
A|---2-2-2-2-2-2--2-2-2-2----------2-2-5-5--x-x-x-x---|
E|------------------------------------------3-3-3-3---|

E|---0-7-7-7-5-4-x-0-2p0-0-0-0-0-0-x-0-9-7-7-5-4-x-0-2p0-0-0-0-0---0-----|
B|---7-7-7-7-7-5-5-3-3---3-3-3-3-3-5-7-7-7-7-7-5-5-3-3---0-2-0-2p0-2p0---|
G|---0-0-0-0-0-0-0-0-0---0-0-0-0-0-0-0-0-0-0-0-0-0-0-0---3-3-3-3---3-----|
D|---0-0-0-0-0-0-0-0-0---0-0-0-0-0-0-0-0-0-0-0-0-0-0-0---0-0-0-0---0-----|
A|---x-x-x-x-----x-x-x---x-x-x-x-x-x-x-x-x-x-----x-x-x---x-x-x-x---x-----|
E|---7-7-7-7-----5-3-3---3-3-3-3-3-5-7-7-7-7-----5-3-3---3-3-3-3---3-----|

E|---0-9-7-7-5-4-x-0-2p0-0-0-0-0-0-x-0-9-7-7-5-4-x-0--0--0-0---|
B|---7-7-7-7-7-5-5-3-3---3-3-3-3-3-5-7-7-7-7-7-5-5-3--0--0-0---|
G|---0-0-0-0-0-0-0-0-0---0-0-0-0-0-0-0-0-0-0-0-0-0-0--3--3-3---|
D|---0-0-0-0-0-0-0-0-0---0-0-0-0-0-0-0-0-0-0-0-0-0-0--0--0-0---|
A|---x-x-x-x-----x-x-x---x-x-x-x-x-x-x-x-x-x-----x-x--x--x-x---|
E|---7-7-7-7-----5-3-3---3-3-3-3-3-5-7-7-7-7-----5-3--3--3-3---|

E|-----------|
B|-----------|
G|-----------| x14
D|-----------|
A|-----------|
E|---5-5-7---|

E|-------------|
B|-------------|
G|-------------| x6
D|-------------|
A|---------5---|
E|---5-5-7-----|


Chorus:

E|---0-7-7-7-5-4-x-0-2p0-0-0-0-0-0-x-0-9-7-7-5-4-x-0-2p0-0-0-0-0---0-----|
B|---7-7-7-7-7-5-5-3-3---3-3-3-3-3-5-7-7-7-7-7-5-5-3-3---0-2-0-2p0-2p0---|
G|---0-0-0-0-0-0-0-0-0---0-0-0-0-0-0-0-0-0-0-0-0-0-0-0---3-3-3-3---3-----|
D|---0-0-0-0-0-0-0-0-0---0-0-0-0-0-0-0-0-0-0-0-0-0-0-0---0-0-0-0---0-----|
A|---x-x-x-x-----x-x-x---x-x-x-x-x-x-x-x-x-x-----x-x-x---x-x-x-x---x-----|
E|---7-7-7-7-----5-3-3---3-3-3-3-3-5-7-7-7-7-----5-3-3---3-3-3-3---3-----|

E|---0-9-7-7-5-4-x-0-2p0-0-0-0-0-0-x-0-9-7-7-5-4-x-0--0-0-0-0-------------------------|
B|---7-7-7-7-7-5-5-3-3---3-3-3-3-3-5-7-7-7-7-7-5-5-3--0-0-0-0--0---0-3-3--3-3---------|
G|---0-0-0-0-0-0-0-0-0---0-0-0-0-0-0-0-0-0-0-0-0-0-0--3-3-3-3----3---0-0--0-0---------|
D|---0-0-0-0-0-0-0-0-0---0-0-0-0-0-0-0-0-0-0-0-0-0-0--0-0-0-0--------0-0--0-0---------|
A|---x-x-x-x-----x-x-x---x-x-x-x-x-x-x-x-x-x-----x-x--x-x-x-x-------------------------|
E|---7-7-7-7-----5-3-3---3-3-3-3-3-5-7-7-7-7-----5-3--3-3-3-3-------------------5-6---|


Outro:

E|-------0-------------------------------------------------------|
B|---------0-----------------------------------------------------|
G|-----------0---0-------0---0-------0-----------0---------------| x6
D|-----------------0---0---------0-----0-----------0-------------|
A|-------------5-----------5-------------0-5-------------5h7p5---|
E|---7-7-------------5---------5---3---------3/5-----7-7---------|


************************************

| /   slide up
| \   slide down
| h   hammer-on
| p   pull-off
| x   Mute note
Outros vídeos desta música
    12 exibições
      • ½ Tom
      • A
      • Bb
      • B
      • C
      • Db
      • D
      • Eb
      • E
      • F
      • F#
      • G
      • Ab
    • Adicionar à lista

    Afinação da cifra

    Afinador online

      0 comentários

      Ver todos os comentários

      Entre para o Cifra Club PRO

      Tenha acesso a benefícios exclusivos no App e no Site

      • Chega de anúncios

      • Mais recursos no app do Afinador

      • Atendimento Prioritário

      • Aumente seu limite de lista

      • Ajude a produzir mais conteúdo

      Cifra Club Pro

      Aproveite o Cifra Club com benefícios exclusivos e sem anúncios
      Cifra Club Pro
      Aproveite o Cifra Club com benefícios exclusivos e sem anúncios
      OK