Cifra Club

Look At Your Faces

Days Of The New

Cifra: Principal (violão e guitarra)
Selo Cifra Club: esta cifra foi revisada para atender aos critérios oficiais da nossa Equipe de Qualidade.
tom: Db
E|E|-------------------------------------------------------------------------------||
                      LOOK AT YOUR FCE S - Days Of The New
E|E|-------------------------------------------------------------------------------||

Tabbed by: Dalibor Lekic

Tuning: D A D F A D


Intro:
E|---0---|
B|---0---|
G|---0---| x4
D|---0---|
A|---0---|
E|---0---|

E|---3-------2---5---3-------2---5---3-------2---5---3-------5/8-2h3p2h3p2h3---|
B|-----0---------------0---------------0---------------0-----------------------|
G|-------0---------------0---------------0---------------0---------------------|
D|---------0---0---0-------0---0---0-------0---0---0-------0-------------------|
A|-----------------------------------------------------------------------------|
E|-----------------------------------------------------------------------------|

E|-------2---5---3-------2---5---3-------2---5---3-------3---2h3p2h3p2p0-------|
B|-----------------0---------------0---------------0---------------------------|
G|-------------------0---------------0---------------0-------------------------|
D|-----0---0---0-------0---0---0-------0---0---0-------0---0-------------------|
A|-----------------------------------------------------------------------------|
E|---0-------------------------------------------------------------------------|


First Verse:

E|-------------0-------------0-----------------0---------------------------|
B|---------0-------------0-----0---0-------0---------0-------0-------------|
G|-----0-------------0-----0-----0-----0-----------------0-----0-----------|
D|-------------------------------------------2-----2---2---0-----0---------|
A|-----------5---------5-----------------3-------3-----------------3-------|
E|---0---3-------0-3-----------------5-------------------------------------|

E|-------------0-------------0-----------------0-------------0-------------|
B|---------0-------------0-----0---0-------0---------0-------0-------------|
G|-----0-------------0-----0-----0-----0-----------------0---0-0-----------|
D|-------------------------------------------2-----2---2---0-2---2---------|
A|-----------5---------5-----------------3-------3-----------3-----3-------|
E|---0---3-------0-3-----------------5-------------------------------------|

E|-------------0-------------0-----------------0---------------------------|
B|---------0-------------0-----0-----------0---------0-------0-------------|
G|-----0-------------0-----------0-----0-----------------0-----0-----------|
D|---------------------------------0---------2-----2---2---0-----0---------|
A|-----------5-------------5-------------3-------3-----------------3-------|
E|---0---3-------0-0---3-------------5-------------------------------------|

E|-------------0-------------0-----------------0---------------------------|
B|---------0-------------0-----0-----------0---------0-----0---------------|
G|-----0-------------0-----------0-----0-----------------0---0-------------|
D|---------------------------------0---------2-----2---2-------2-----------|
A|-----------5-------------5-------------3-------3---------------3---------|
E|---0---3-------0-0---3-------------5-----------------------------5-------|

Pre-Chorus:

E|---0-0-0-0-0-0-0-0-0-x-0-0-0-0-0-0---|
B|---0-0-0-0-0-0-0-0-0-x-0-0-0-0-0-0---|
G|---0-0-0-0-0-0-0-0-0-x-0-0-0-0-0-0---|
D|---0-0-0-0-0-0-0-0-0-x-0-0-0-0-0-0---|
A|---5-5-5-5-5-5-5-5-5-x-5-5-5-5-5-5---|
E|---8-8-8-8-8-8-8-8-8-x-7/8-8-8-8-8---|

E|---------------------------0-0---|
B|---------------------------0-0---|
G|---0---0---0---0---0---0---0-0---|
D|---0---0---0---0---0---0---8-8---|
A|---5-x-0-x-5-x-8-x-0-x-5-x-0-0---|
E|---8-x-3-x-5-x-8-x-3-x-5-x-8-8---|

E|---------------------------0-0-0-0-0-0-0-0-0-0-0---|
B|---------------------------0-0-0-0-0-0-0-0-0-0-0---|
G|---0---0---0---0---0---0---0-0-0-0-0-0-0-0-0-0-0---|
D|---0---0---0---0---0---0---8-8-8-8-8-8-8-8-7-8-7---|
A|---5-x-0-x-5-x-8-x-0-x-5-x-0-0-0-0-0-0-0-0-0-0-0---|
E|---8-x-3-x-5-x-8-x-3-x-5-x-8-8-8-8-8-8-8-8-7-8-7---|

Chorus: 

E|---0-0-0-0-0-0-0-0-0--0-0-0-0-0-0-0-0-0--0-0-0-0-0-0-0-0-0--0-0-0-0-0-0-0-0-0---|
B|---0-0-0-0-0-0-0-0-0--0-0-0-0-0-0-0-0-0--0-0-0-0-0-0-0-0-0--0-0-0-0-0-0-0-0-0---|
G|---0-0-0-0-0-0-0-0-0--0-0-0-0-0-0-0-0-0--0-0-0-0-0-0-0-0-0--0-0-0-0-0-0-0-0-0---|
D|---0-0-3/7-7-0-0-0-0--0-0-3/8-8-5-5-5-5--0-0-3/8-8-0-0-0-0--5-5-5-5-5-5-5-5-5---|
A|---0-0-0-0-0-0-0-0-0--0-0-0-0-0-0-0-0-0--0-0-0-0-0-0-0-0-0--0-0-0-0-0-0-0-0-0---|
E|---0-0-3/7-7-0-0-0-0--0-0-3/8-8-5-5-5-5--0-0-3/8-8-0-0-0-0--5-5-5-5-5-5-5-5-5---|

Post-Chorus:(x2)
E|--------------------------------------|
B|--------------------------------------|
G|---------0-----------0----------------|
D|---------3-----------3--------5-5-3---|
A|-4---5---5---4---5---5----4-5-5-5-5---|
E|-0---0------------------0-------------|


Second Verse:

E|----------------------------------------------------------------------|
B|--------------------------------------------0-------------------------|
G|----------------------------------------0-----0-----------------------|
D|-----0---0---0---0---0---0---0--------0---0-----0---------------------|
A|-----------1-----------1---0---1----2-------------1-------8b--5p3p0---|
E|---0---3-------0---3----------------------------------7p5-------------|

E|----------------------------------------------------------------------|
B|--------------------------------------------0-------------------------|
G|----------------------------------------0-----0-----------------------|
D|-----0---0---0---0---0---0---0--------0---0-----0---------------------|
A|-----------1-----------1---0---1----2-------------1-----------5p3p0---|
E|---0---3-------0---3--------------------------------------------------|

E|----------------------------------------------------------------------|
B|--------------------------------------------0-------------------------|
G|----------------------------------------0-----0-----------------------|
D|-----0---0---0---0---0---0---0--------0---0-----0---------------------|
A|-----------1-----------1---0---1----2-------------1-------8b--5p3p0---|
E|---0---3-------0---3----------------------------------7p5-------------|

E|------------------------------------------------------|
B|--------------------------------------------0---------|
G|----------------------------------------0-----0-------|
D|-----0---0---0---0---0---0---0--------0---0-----0-----|
A|-----------1-----------1---0---1----2-------------1---|
E|---0---3-------0---3----------------------------------|

Pre-Chorus:

E|---------------------------0-0---|
B|---------------------------0-0---|
G|---0---0---0---0---0---0---0-0---|
D|---0---0---0---0---0---0---8-8---|
A|---5-x-0-x-5-x-8-x-0-x-5-x-0-0---|
E|---8-x-3-x-5-x-8-x-3-x-5-x-8-8---|

E|---------------------------0-0-0-0-0-0-0-0-0-0-0---|
B|---------------------------0-0-0-0-0-0-0-0-0-0-0---|
G|---0---0---0---0---0---0---0-0-0-0-0-0-0-0-0-0-0---|
D|---0---0---0---0---0---0---8-8-8-8-8-8-8-8-7-8-7---|
A|---5-x-0-x-5-x-8-x-0-x-5-x-0-0-0-0-0-0-0-0-0-0-0---|
E|---8-x-3-x-5-x-8-x-3-x-5-x-8-8-8-8-8-8-8-8-7-8-7---|

Chorus: (x2)

E|---0-0-0-0-0-0-0-0-0--0-0-0-0-0-0-0-0-0--0-0-0-0-0-0-0-0-0--0-0-0-0-0-0-0-0-0---|
B|---0-0-0-0-0-0-0-0-0--0-0-0-0-0-0-0-0-0--0-0-0-0-0-0-0-0-0--0-0-0-0-0-0-0-0-0---|
G|---0-0-0-0-0-0-0-0-0--0-0-0-0-0-0-0-0-0--0-0-0-0-0-0-0-0-0--0-0-0-0-0-0-0-0-0---|
D|---0-0-3/7-7-0-0-0-0--0-0-3/8-8-5-5-5-5--0-0-3/8-8-0-0-0-0--5-5-5-5-5-5-5-5-5---|
A|---0-0-0-0-0-0-0-0-0--0-0-0-0-0-0-0-0-0--0-0-0-0-0-0-0-0-0--0-0-0-0-0-0-0-0-0---|
E|---0-0-3/7-7-0-0-0-0--0-0-3/8-8-5-5-5-5--0-0-3/8-8-0-0-0-0--5-5-5-5-5-5-5-5-5---|

Bridge:

E|-----------------|
B|-----------------|
G|-------------0---|
D|-------------5---|
A|---5--5-5-3--5---|
E|---5--5-5-3------|

(after "my lulaby go")
E|---------------------------------0-0-------------------------------0-0--0-0-0---|
B|---------------------------------0-0--------------0-0-0-0-0-0-0-0--0-0--0-0-0---|
G|---0--0-0--0-0--0-0--0-0--0-0----0-0--0-0--0-0--0-0-0-0-0-0-0-0-0--0-0--0-0-0---|
D|---0--0-0--0-0--0-0--0-0--0-0----0-0--0-0--0-0--0-5p3-3-0-0-0-0-0--0-0--0-0| 0---|
A|---5--5-5--5-5--5-5--5-5--5-5-0--0-0--5-5--5-5--5-0-0-0-5p3-5-5-5--5-5--5-0-0---|
E|---5--5-5--5-5--5-5--5-5--5-5-0--0-0--5-5--5-5--5-----------5p3-5--5-5--5-0-0---|

(after "yeeah")
E|---0--0-0-0-0-0-0-0-0-0-0-0-0-0-0--0--0-0-0-0-0-0-0-0-0-0-0-0-0-0-0-0-0---|
B|---0--0-0-0-0-0-0-0-0-0-0-0-0-0-0--0--0-0-0-0-0-0-0-0-0-0-0-0-0-0-0-0-0---|
G|---0--0-0-0-0-0-0-0-0-0-0-0-0-0-0--0--0-0-0-0-0-0-0-0-0-0-0-0-0-0-0-0-0---|
D|---0--0-0-0-0-0-0-0-0-0-0-0-0-0-0--0--0-0-0-0-0-0-0-0-0-8-8-8-8-8-8-8-8---|
A|---8--8-7-7-5-5-3-3-5-5-5-5-5-5-5--5--8-7-7-5-5-3-3-5-5-0-0-0-0-0-0-0-0---|
E|---8--0-0-0-0-0-0-0-5-5-8-8-8-7-8--8--0-0-0-0-0-0-0-5-5-8-8-8-8-8-8-8-8---|

Chorus: (x2)

E|---0-0-0-0-0-0-0-0-0--0-0-0-0-0-0-0-0-0--0-0-0-0-0-0-0-0-0--0-0-0-0-0-0-0-0-0---|
B|---0-0-0-0-0-0-0-0-0--0-0-0-0-0-0-0-0-0--0-0-0-0-0-0-0-0-0--0-0-0-0-0-0-0-0-0---|
G|---0-0-0-0-0-0-0-0-0--0-0-0-0-0-0-0-0-0--0-0-0-0-0-0-0-0-0--0-0-0-0-0-0-0-0-0---|
D|---0-0-3/7-7-0-0-0-0--0-0-3/8-8-5-5-5-5--0-0-3/8-8-0-0-0-0--5-5-5-5-5-5-5-5-5---|
A|---0-0-0-0-0-0-0-0-0--0-0-0-0-0-0-0-0-0--0-0-0-0-0-0-0-0-0--0-0-0-0-0-0-0-0-0---|
E|---0-0-3/7-7-0-0-0-0--0-0-3/8-8-5-5-5-5--0-0-3/8-8-0-0-0-0--5-5-5-5-5-5-5-5-5---|

Bridge:

E|-----------------|
B|-----------------|
G|-------------0---|
D|-------------5---|
A|---5--5-5-3--5---|
E|---5--5-5-3------|

Post-Chorus:(x2)
E|--------------------------------------|
B|--------------------------------------|
G|---------0-----------0----------------|
D|---------3-----------3--------5-5-3---|
A|-4---5---5---4---5---5----4-5-5-5-5---|
E|-0---0------------------0-------------|


************************************

| /   slide up
| \   slide down
| p   pull-off
| ~   vibrato
| b   bend
Outros vídeos desta música
      • ½ Tom
      • A
      • Bb
      • B
      • C
      • Db
      • D
      • Eb
      • E
      • F
      • F#
      • G
      • Ab
    • Adicionar à lista

    Afinação da cifra

    Afinador online

      0 comentários

      Ver todos os comentários

      Entre para o Cifra Club PRO

      Tenha acesso a benefícios exclusivos no App e no Site

      • Chega de anúncios

      • Mais recursos no app do Afinador

      • Atendimento Prioritário

      • Aumente seu limite de lista

      • Ajude a produzir mais conteúdo

      Cifra Club Pro

      Aproveite o Cifra Club com benefícios exclusivos e sem anúncios
      Cifra Club Pro
      Aproveite o Cifra Club com benefícios exclusivos e sem anúncios
      OK