Cifra Club

One Foot Ahead

Days Of The New

Cifra: Principal (violão e guitarra)
Selo Cifra Club: esta cifra foi revisada para atender aos critérios oficiais da nossa Equipe de Qualidade.
tom: D
E|-0-0-0-0-3-3-3-3--2-2-2-0-0---------0-0----|
B|-3-3-3-3-3-3-3-3--3-3-3-3-3---------3-3----|
G|-0-0-0-0-0-0-0-0--2-2-2-2-2---------2-2----|
D|-2-2-2-2-0-0-0-0--0-0-0-0-0---------0-0----|
A|-3-3-3-3-----------------------------------|
E|---------3-3-3-3------------2-2-2-0--------|

E|-0-0-0-0-3-3-3-3--3-2-2-0-0h2-2-2--------|
B|-3-3-3-3-3-3-3-3--3-3-3-3-3-3-3---3------|
G|-0-0-0-0-0-0-0-0--2-2-2-2-2-2-2-----2----|
D|-2-2-2-2-2-2-2-2--0-0-0-0-0-0-0----------|
A|-3-3-3-3-2-2-2-2-------------------------|
E|---------0-0-0-0-------------------------|

E|-0--0--0--1-1-1-1-1-0----|
B|-1--1--3--3-3-3-3-3-3----|
G|-2--0--2--2-2-2-2-2-2----|
D|-2--2--0--0-0-0-0-0-0----|
A|-0--0--------------------|
E|----3--2--2-2-2-2-2-2----|

E|-0--0--0--0-----0-0-0----|
B|-2--3--3--0-----0-0-0----|
G|-2--0--2--2-----2-2-2----|
D|-2--2--0--3-----3-3-3----|
A|-0--3-----3-----3-3-3----|
E|-------2--1-----1-1-1----|

        ~
E|--------------------------------|
B|------------0-0-0-0--0-0-0-0----|
G|------------4-4-4-4--4-4-4-4----|
D|-----1-2-2--5-5-5-5--5-5-5-5----|
A|-2-3-0-0-0--5-5-5-5--5-5-5-5----|
E|-1-1--------3-3-3-3--3-3-3-3----|
Outros vídeos desta música
    3 exibições
      • ½ Tom
      • A
      • Bb
      • B
      • C
      • Db
      • D
      • Eb
      • E
      • F
      • F#
      • G
      • Ab
    • Adicionar à lista

    Afinação da cifra

    Afinador online

      0 comentários

      Ver todos os comentários

      Entre para o Cifra Club PRO

      Tenha acesso a benefícios exclusivos no App e no Site

      • Chega de anúncios

      • Mais recursos no app do Afinador

      • Atendimento Prioritário

      • Aumente seu limite de lista

      • Ajude a produzir mais conteúdo

      Cifra Club Pro

      Aproveite o Cifra Club com benefícios exclusivos e sem anúncios
      Cifra Club Pro
      Aproveite o Cifra Club com benefícios exclusivos e sem anúncios
      OK