Cifra Club

Special Guide

Days Of The New

Cifra: Principal (violão e guitarra)
Selo Cifra Club: esta cifra foi revisada para atender aos critérios oficiais da nossa Equipe de Qualidade.
tom: C
E|----------------------------------------------------------------|
B|----------------------------------------------------------------|
G|----------------------------------------------------------------|
D|-3~----0-----0-----0------3--0-0-0-x-0-----0-----0------3---0-x-|
A|-3~------3h5---3h5---3p0--3--0-0-0-x---3h5---3h5---3p0--3---0-x-|
E|-3~-----------------------3--0-0-0-x--------------------3---0-x-|

E|----------------------------------------------------------------|
B|----------------------------------------------------------------|
G|----------------------------------------------------------------|
D|-3~----0-----0-----0------3--0-0-0-x-0-----0-----0------3---0-x-|
A|-3~------3h5---3h5---3p0--3--0-0-0-x---3h5---3h5---3p0--3---0-x-|
E|-3~-----------------------3--0-0-0-x--------------------3---0-x-|



************************************

| b  Bend
| x  Dead note
| ~  Vibrato
| h  Hammer-on
| p  Pull-off
Outros vídeos desta música
    6 exibições
      • ½ Tom
      • A
      • Bb
      • B
      • C
      • Db
      • D
      • Eb
      • E
      • F
      • F#
      • G
      • Ab
    • Adicionar à lista

    Afinação da cifra

    Afinador online

      0 comentários

      Ver todos os comentários

      Entre para o Cifra Club PRO

      Tenha acesso a benefícios exclusivos no App e no Site

      • Chega de anúncios

      • Mais recursos no app do Afinador

      • Atendimento Prioritário

      • Aumente seu limite de lista

      • Ajude a produzir mais conteúdo

      Cifra Club Pro

      Aproveite o Cifra Club com benefícios exclusivos e sem anúncios
      Cifra Club Pro
      Aproveite o Cifra Club com benefícios exclusivos e sem anúncios
      OK