Cifra Club

The Down Town

Days Of The New

Cifra: Versão 2 (violão e guitarra)
Selo Cifra Club: esta cifra foi revisada para atender aos critérios oficiais da nossa Equipe de Qualidade.
tom: E
E|-------------------------------------0-----|-------------------s0---------|
B|---------------------------0rr--------0-3--|---0rr------------s0----------|
G|-2----------2-----------------2rr--------1-|------2rr--------s1-----------|
D|--2-2----2---2-2----------3------3--2--2---|--3------3------s2------------|
A|0----------0--------0----3---------2-------|-3-------------s2-------------|
E|---0-0-3b-----0-0-3b----1---------0--------| 1---------0---s0--------------|

[Verse 3X]                            [Verse 4th rep]
E|-0-0000(0)-0-0000(0)-0-0000rr-00000-|-0-0000(0)-0-0000(0)-0-0000rr--------|
B|-0-0000(0)-0-0000(0)-0-0000rr-00000-|-0-0000(0)-0-0000(0)-0-0000rr0r------|
G|-6-0000h6--6-0000h6--6-0002rr-22224-|-6-0000h6--6-0000h6--6-0002rr-2r-----|
D|-7-7777(7)-7-7777(7)-7-7773rr-33335-|-7-7777(7)-7-7777(7)-7-7773rr--3r----|
A|-7-7777(7)-7-7777(7)-7-7773rr-33335-|-7-7777(7)-7-7777(7)-7-7773rr---3r---|
E|-5-5555(5)-5-5555(5)-5-5551rr-11113-|-5-5555(5)-5-5555(5)-5-5551rr--------|

[Verse 4X with vocals]
E|-0-0000(0)-0-000-0r-000r-000000-0-|---------------------------------------|
B|-0-0000(0)-0-000-0r-000r-000000-0-|---------------------------------------|
G|-6-0000h6--6-000-2r-222r-222222-4-|---------------------------------------|
D|-7-7777(7)-7-777-3r-333r-333333-5-|---------------------------------------|
A|-7-7777(7)-7-777-3r-333r-333333-5-|---------------------------------------|
E|-5-5555(5)-5-555-1r-111r-111111-3-|---------------------------------------|

[Chorus 4X](Bring me down, bring me down)
E|-0x0000-00x0000x-000000000000-|-0x0000-00x0000x-0r0r00rr0r00rr------------|
B|-0x0000-00x0000x-000000000000-|-0x0000-00x0000x-0r0r00rr0r00rr------------|
G|-6x6666-44x4444x-111111111111-|-6x6666-44x4444x-2r2r22rr2r22rr------------|
D|-7x7777-55x5555x-222222000000-|-7x7777-55x5555x-3r3r33rr3r33rr------------|
A|-7x7777-55x5555x-222222222222-|-7x7777-55x5555x-3r3r33rr3r33rr------------|
E|-5x5555-33x3333x-000000000000-|-5x5555-33x3333x-1r1r11rr1r11rr------------|

[Guitars 1&2 play whole intro again]
E|-------------------------------------0-----|-------------------s0---------|
B|---------------------------0rr--------0-3--|---0rr------------s0----------|
G|-2----------2-----------------2rr--------1-|------2rr--------s1-----------|
D|--2-2----2---2-2----------3------3--2--2---|--3------3------s2------------|
A|0----------0--------0----3---------2-------|-3-------------s2-------------|
E|---0-0-3b-----0-0-3b----1---------0--------| 1---------0---s0--------------|

[Verse 4X with vocals]
E|-0-0000(0)-0-000-0r-000r-000000-0-|---------------------------------------|
B|-0-0000(0)-0-000-0r-000r-000000-0-|---------------------------------------|
G|-6-0000h6--6-000-2r-222r-222222-4-|---------------------------------------|
D|-7-7777(7)-7-777-3r-333r-333333-5-|---------------------------------------|
A|-7-7777(7)-7-777-3r-333r-333333-5-|---------------------------------------|
E|-5-5555(5)-5-555-1r-111r-111111-3-|---------------------------------------|

[Chorus 4X](Bring me down, bring me down)
E|-0x0000-00x0000x-000000000000-|-0x0000-00x0000x-0r0r00rr0r00rr------------|
B|-0x0000-00x0000x-000000000000-|-0x0000-00x0000x-0r0r00rr0r00rr------------|
G|-6x6666-44x4444x-111111111111-|-6x6666-44x4444x-2r2r22rr2r22rr------------|
D|-7x7777-55x5555x-222222000000-|-7x7777-55x5555x-3r3r33rr3r33rr------------|
A|-7x7777-55x5555x-222222222222-|-7x7777-55x5555x-3r3r33rr3r33rr------------|
E|-5x5555-33x3333x-000000000000-|-5x5555-33x3333x-1r1r11rr1r11rr------------|

[Extended chorus plays 3X]
E|-0r0r00rr0r00rr--------|-0------------------------------------------------|
B|-0r0r00rr0r00rr--------|-0------------------------------------------------|
G|-2r2r22rr2r22rr--------|-1------------------------------------------------|
D|-3r3r33rr3r33rr--------|-2------------------------------------------------|
A|-3r3r33rr3r33rr--------|-2------------------------------------------------|
E|-1r1r11rr1r11rr--------|-0------------------------------------------------|

[Intro X1]
E|--------------------------------------0-----|
B|---------------------------0rr---------0-3--|
G|-2----------2-----------------2rr---------1-|
D|--2-2----2---2-2----------3------3--2---2---|
A|0----------0--------0----3---------2--------|
E|---0-0-3b-----0-0-3b----1---------0---------|

[Altered Intro X1]
E|---------------------------------------0----|
B|---------------------------0rr----------0---|
G|-2----------2-----------------2rr----1---1--|
D|--2-2----2---2-2----------3------3--2-----2-|
A|0----------0--------0----3---------2--------|
E|---0-0-3b-----0-0-3b----1---------0---------|

[Bridge]
[X4](2nd 2 more aggressive) this is 4th rep with transition
E|-0r000r000rrr0r000r000r-|-0r000r000rrr0r000r0000000-------------|
B|-0r000r000rrr0r000r000r-|-0r000r000rrr0r000r0000000-------------|
G|-4r444r444r4\2r222r222r-|-4r444r444r4\2r222/6666666-------------|
D|-5r555r555r5\3r333r333r-|-5r555r555r5\3r333/7777777-------------|
A|-5r555r555r5\3r333r333r-|-5r555r555r5\3r333/7777777-------------|
E|-3r333r333r3\1r111r111r-|-3r333r333r3\1r111/5555555-------------|

[Chorus 12X](Bring me down, bring me down)
E|-0x0000-00x0000x-000000000000-|-0x0000-00x0000x-0r0r00rr0r00rr------------|
B|-0x0000-00x0000x-000000000000-|-0x0000-00x0000x-0r0r00rr0r00rr------------|
G|-6x6666-44x4444x-111111111111-|-6x6666-44x4444x-2r2r22rr2r22rr------------|
D|-7x7777-55x5555x-222222000000-|-7x7777-55x5555x-3r3r33rr3r33rr------------|
A|-7x7777-55x5555x-222222222222-|-7x7777-55x5555x-3r3r33rr3r33rr------------|
E|-5x5555-33x3333x-000000000000-|-5x5555-33x3333x-1r1r11rr1r11rr------------|

[Extended chorus plays 3X slowing as the song comes to an end]
E|-0r0r00rr0r00rr--------|------s0------|
B|-0r0r00rr0r00rr--------|-----s0-------|
G|-2r2r22rr2r22rr--------|----s1--------|
D|-3r3r33rr3r33rr--------|---s2---------|
A|-3r3r33rr3r33rr--------|--s2----------|
E|-1r1r11rr1r11rr--------|-s0-----------|

************************************

| b    Bend
| (n)  Ghost note
| r    Release
| h    Hammer-on
| x    Dead note
| /    Slide up
| \    Slide down
Outros vídeos desta música
    110 exibições
      • ½ Tom
      • A
      • Bb
      • B
      • C
      • Db
      • D
      • Eb
      • E
      • F
      • F#
      • G
      • Ab
    • Adicionar à lista

    Afinação da cifra

    Afinador online

      0 comentários

      Ver todos os comentários

      Entre para o Cifra Club PRO

      Tenha acesso a benefícios exclusivos no App e no Site

      • Chega de anúncios

      • Badges exclusivas

      • Mais recursos no app do Afinador

      • Atendimento Prioritário

      • Aumente seu limite de lista

      • Ajude a produzir mais conteúdo

      Cifra Club Pro

      Aproveite o Cifra Club com benefícios exclusivos e sem anúncios
      Cifra Club Pro
      Aproveite o Cifra Club com benefícios exclusivos e sem anúncios
      OK