Cifra Club

Where It Ends

Days Of The New

Cifra: Principal (violão e guitarra)
Selo Cifra Club: esta cifra foi revisada para atender aos critérios oficiais da nossa Equipe de Qualidade.
tom: F#
E|E|-------------------------------------------------------------------------------||
                       WHED  IT ENDS - Days Of The New
E|E|-------------------------------------------------------------------------------||
Tabbed by: Dalibor Lekic

Tuning: C F C F C F


Intro:

E|----------------------------0----------------------|
B|-------5---5---5---5----7---4----------------------|
G|-------7---7---7---7----8---5------------------0---|
D|-----8---8---8---8---8--10--7----------------------|
A|---0---------------------------------0-2-3-5/7-----|
E|---------------------------------0h4---------------|

E|--------------------------------0---------------------|
B|-------5---5---5---5---5---5----4----1-0--------------|
G|-------7---7---7---7---7---7----5----0-0--------------|
D|-----8---8---8---8---8---8---8--7---------------------|
A|---0------------------------------------0h2-2h3p2p0---|
E|------------------------------------------------------|

E|----------------------------------0---|
B|-------5---5---5---5----7------7--4---|
G|-------7---7---7---7----8--8------5---|
D|-----8---8---8---8---8--10---10---7---|
A|---0----------------------------------|
E|--------------------------------------|


1:

E|--------------------------------0----------------------|
B|-------5---5---5---5---5---5----4----------------------|
G|-------7---7---7---7---7---7----5----------------------|
D|-----8---8---8---8---8---8---8--7----------------------|
A|---0---------------------------------0---0-2-3---0-2---|
E|---------------------------------------4-------4-------|

E|-----------------------------------0------------------|
B|-------5---5---5---5----7-------7--4------------------|
G|-------7---7---7---7----8--8-------5------------------|
D|-----8---8---8---8---8--10---10----7------------------|
A|---0------------------------------------0h2-2h3p2p0---|
E|------------------------------------------------------|

E|--------------------------------0----------|
B|-------5---5---5---5---5---5----4----1-0---|
G|-------7---7---7---7---7---7----5----0-0---|
D|-----8---8---8---8---8---8---8--7----------|
A|---0---------------------------------------|
E|-------------------------------------------|

E|--------------------------------0---|
B|-------5---5---5---5---5---5----4---|
G|-------7---7---7---7---7---7----5---|
D|-----8---8---8---8---8---8---8--7---|
A|---0--------------------------------|
E|------------------------------------|


2:

E|---------------------------------------------------------------|
B|-----0---0---0---0---------------------------------------------|
G|---0---2---3-------0------0---0---0---0------------------------|
D|---------------4--------0---1---3---1---0------0---0---0---0---|
A|-------------------------------------------------2---3---------|
E|---------------------------------------------4-----------4-----|


3:

F|-----------0-----0------0------------0-----0-------0-----------0-----0------0-------|
C|-------------0------0-----0------------0------0------0-----------0------0-----0-----|
F|---------3-----3------3-----3------3-----3------3------3-----3-----3------3-----3---|
C|-------5----------------------4h5------------------------4h5------------------------|
F|---0E|E|-------------------------------------------------------------------------------||-|
C|E|E|-------------------------------------------------------------------------------||-----|

E|---------0-------------0---------0-------|
B|-----------0---------0---0-----0---0-----|
G|-------3-------3---2---------2-----------|
D|---4h5-------5---4---------4---------4---|
A|-----------------------------------------|
E|-----------------------------------------|

4:

E|----------------------------------------------------------------------|
B|--------------------------------------0-------------------------------|
G|---------------------------------0--------------------------------0---| x4
D|--------0------0--------0------0---0-----------0------0--------0--0---|
A|------3------2--------7----------------------3------2--------7----x---|
E|---5-------4------10-------8--------------5-------4------10-------8---|


5:

E|---0---0--0--0--0---0--0---0--0--0--0---|
B|---0---0--0--0--0---0--0---0--0--0--0---|
G|---0---0--0--0--0---0--0---0--0--0--0---|
D|---12--8--7--5--4---5--12--8--7--5--4---|
A|---12--0--5--3--2---3--12--0--5--3--2---|
E|---10--8--7--5------5--10--8--7--5------|


6:

E|---0-0-0-0-0-0-0-0--0-0-0-0-3p0-0-0-0-0-3p0-0-0-0-0---|
B|---5-5-5-5\3-3/7-7--0-0-0-0-0-0-0h3-0-0-0-0-0h3-0-0---|
G|---0-0-0-0-0-0-0-0--0-0-0-0-3p0-0-0-0-0-3p0-0-0-2-2---| x2
D|---5-5-5-5\3-3/7-7--0-0-0-0-0-0-0h3-0-0-0-0-0h3-0-0---|
A|---0-0-0-0-0-0-0-0--0-0-0-0-0-0-0-0-0-0-0-0-0-0-2-2---|
E|---0-0-0-0-0-0-0-0--0-0-0-0-0-0-0-0-0-0-0-0-0-0-0-0---|

E|---0-0-0-0-0--0-3p0-0--0-0-0-0-0--0-3p0-0--0-0-0-0-0--0-3p0-0--0-0-0---|
B|---5-5\3/7-0--0-0-0-0--0-0-3-3-0--0-0-0-0--0-0-3-3-0--0-0-0-0--0-0-0---|
G|---0-0-0-0-0--0-3p0-0--0-0-0-0-0--0-3p0-0--0-0-0-0-0--0-3p0-0--2-2-2---| x2
D|---5-5\3/7-0--0-0-0-0--0-0-3-3-0--0-0-0-0--0-0-3-3-0--0-0-0-0--0-0-0---|
A|---0-0-0-0-0--0-0-0-0--0-0-0-0-0--0-0-0-0--0-0-0-0-0--0-0-0-0--2-2-2---|
E|---0-0-0-0-0--0-0-0-0--0-0-0-0-0--0-0-0-0--0-0-0-0-0--0-0-0-0--0-0-0---|


7:

E|----------------------------------------------------------------------|
B|--------------------------------------0-------------------------------|
G|---------------------------------0--------------------------------0---| x3
D|--------0------0--------0------0---0-----------0------0--------0--0---|
A|------3------2--------7----------------------3------2--------7----x---|
E|---5-------4------10-------8--------------5-------4------10-------8---|


8:

E|---0---0--0--0--0---0--0---0--0--0--0---|
B|---0---0--0--0--0---0--0---0--0--0--0---|
G|---0---0--0--0--0---0--0---0--0--0--0---|
D|---12--8--7--5--4---5--12--8--7--5--4---|
A|---12--0--5--3--2---3--12--0--5--3--2---|
E|---10--8--7--5------5--10--8--7--5------|


9:

E|---0-0-0-0-0-0-0-0--0-0-0-0-3p0-0-0-0-0-3p0-0-0-0-0---|
B|---5-5-5-5\3-3/7-7--0-0-0-0-0-0-0h3-0-0-0-0-0h3-0-0---|
G|---0-0-0-0-0-0-0-0--0-0-0-0-3p0-0-0-0-0-3p0-0-0-2-2---| x2
D|---5-5-5-5\3-3/7-7--0-0-0-0-0-0-0h3-0-0-0-0-0h3-0-0---|
A|---0-0-0-0-0-0-0-0--0-0-0-0-0-0-0-0-0-0-0-0-0-0-2-2---|
E|---0-0-0-0-0-0-0-0--0-0-0-0-0-0-0-0-0-0-0-0-0-0-0-0---|

E|---0-0-0-0-0--0-3p0-0--0-0-0-0-0--0-3p0-0--0-0-0-0-0--0-3p0-0--0-0-0---|
B|---5-5\3/7-0--0-0-0-0--0-0-3-3-0--0-0-0-0--0-0-3-3-0--0-0-0-0--0-0-0---|
G|---0-0-0-0-0--0-3p0-0--0-0-0-0-0--0-3p0-0--0-0-0-0-0--0-3p0-0--2-2-2---| x2
D|---5-5\3/7-0--0-0-0-0--0-0-3-3-0--0-0-0-0--0-0-3-3-0--0-0-0-0--0-0-0---|
A|---0-0-0-0-0--0-0-0-0--0-0-0-0-0--0-0-0-0--0-0-0-0-0--0-0-0-0--2-2-2---|
E|---0-0-0-0-0--0-0-0-0--0-0-0-0-0--0-0-0-0--0-0-0-0-0--0-0-0-0--0-0-0---|

E|---0-0-0-0-0-0-0-0--0-0-0-0-3p0-0-0-0-0-3p0-0-0-0-0---|
B|---5-5-5-5\3-3/7-7--0-0-0-0-0-0-0h3-0-0-0-0-0h3-0-0---|
G|---0-0-0-0-0-0-0-0--0-0-0-0-3p0-0-0-0-0-3p0-0-0-2-2---| x2
D|---5-5-5-5\3-3/7-7--0-0-0-0-0-0-0h3-0-0-0-0-0h3-0-0---|
A|---0-0-0-0-0-0-0-0--0-0-0-0-0-0-0-0-0-0-0-0-0-0-2-2---|
E|---0-0-0-0-0-0-0-0--0-0-0-0-0-0-0-0-0-0-0-0-0-0-0-0---|


10:

F|---------0-----------0-----------0-----------0------------0------------0------------0--------------------|
C|-------0---0-------0---0-------0---0-------0------------0---0--------0---0--------0---0--------0-----0---|
F|-----7-------7---7-------7---7-------7---7------------8-------8----8-------8----8-------8----8-----8-----|
C|---8-----------------------8-------------------8-9-10-----------10-----------10-----------10-----9-------|
F|---------------0-----------------------0-----------------------------------------------------------------|
C|E|E|-------------------------------------------------------------------------------||--------------------------|

F|---------0-----------0-----------0-----------0------------0------------0-------|
C|-------0---0-------0---0-------0---0-------0------------0---0--------0---0-----|
F|-----7-------7---7-------7---7-------7---7------------8-------8----8-------8---|
C|---8-----------------------8-------------------8-9-10-----------10-------------|
F|---------------0-----------------------0---------------------------------------|
C|E|E|-------------------------------------------------------------------------------|||

F|------------------0------------0------------0-------------0------------0-----------0-----------0-----------|
C|----------------0---0--------0---0--------0---0---------0---0--------0---0-------0---0-------0---0---------|
F|--8--8--7-5-7\3-------3----3------------3-------3-----3------------3-----------3-----------3-------3----3--|
C|--10-10-8-7-8\5---------------------4/5-----------5------------4/5---------4/5---------4/5-----------5--5--|
F|------------------------0---------------------------0------------------------------------------------------|
C|E|E|-------------------------------------------------------------------------------||----------------------------|

E|----------------------0-----------0-----|
B|--------------------0---0-------0---0---|
G|---3/8--8--8--7-5\3-------3---3---------|
D|---5/10-10-10-8-7\5---------------------|
A|----------------------------0-----------|
E|----------------------------------------|

F|-----------0-------------0------------0-----------0---------0-----------0-------|
C|---------0---0---------0---0--------0---0-------0---0-----0---0-------0---0-----|
F|-------3-------3-----3------------3-----------3---------2-------3---2-------3---|
C|---4/5-----------5------------4/5---------4/5---------4-----------4-------------|
F|-------------------0------------------------------------------------------------|
C|E|E|-------------------------------------------------------------------------------||-|

E|---------------------------|
B|---------------------------|
G|---0-----------0-----------|
D|---2-----------2-----------|
A|---0---0--3~---0---0--3~---|
E|---------------------------|


11:

E|---0-0-0-0-0-0--------------0-0-0-0-0-0-0-0-0-0-0-0-0-0-0-0---|
B|---1-1-1-1-0-0--------------0-0-0-0-0-0-0-0-0-0-0-0-0-0-0-0---|
G|---0-0-0-0-0-0--------------3-3-3-3-2-2-2-2-0-0-0-0-0-0-0-0---|
D|---1-1-1-1-0-0----0-1-0---0-0-0-0-0-0-0-0-0-5-5-5-5-5-5-5-5---|
A|---0-0-0-0-0-0--5-------5---3-3-3-3-2-2-2-2-5-5-5-5-5-5-5-5---|
E|---0-0-0-0-0-0--------------0-0-0-0-0-0-0-0-3-3-3-3-3-3-3-3---|

E|---0-0-0-0-0-0-0-0-0-0-0-0---|
B|---0-0-0-0-0-0-0-0-0-0-0-0---|
G|---0-0-0-2-2-2-3-3-3-0-0-0---| x5
D|---0-0-0-0-0-0-0-0-0-5-5-5---|
A|---0-0-0-2-2-2-3-3-3-5-5-5---|
E|---0-0-0-0-0-0-0-0-0-3-3-3---|


12:

F|---------0-----------0-----------0-----------0------------0------------0------------0--------------------|
C|-------0---0-------0---0-------0---0-------0------------0---0--------0---0--------0---0--------0-----0---|
F|-----7-------7---7-------7---7-------7---7------------8-------8----8-------8----8-------8----8-----8-----|
C|---8-----------------------8-------------------8-9-10-----------10-----------10-----------10-----9-------|
F|---------------0-----------------------0-----------------------------------------------------------------|
C|E|E|-------------------------------------------------------------------------------||--------------------------|

F|---------0-----------0-----------0-----------0------------0------------0-------|
C|-------0---0-------0---0-------0---0-------0------------0---0--------0---0-----|
F|-----7-------7---7-------7---7-------7---7------------8-------8----8-------8---|
C|---8-----------------------8-------------------8-9-10-----------10-------------|
F|---------------0-----------------------0---------------------------------------|
C|E|E|-------------------------------------------------------------------------------|||

F|------------------0------------0------------0-------------0------------0-----------0-----------0-----------|
C|----------------0---0--------0---0--------0---0---------0---0--------0---0-------0---0-------0---0---------|
F|--8--8--7-5-7\3-------3----3------------3-------3-----3------------3-----------3-----------3-------3----3--|
C|--10-10-8-7-8\5---------------------4/5-----------5------------4/5---------4/5---------4/5-----------5--5--|
F|------------------------0---------------------------0------------------------------------------------------|
C|E|E|-------------------------------------------------------------------------------||----------------------------|

E|----------------------0-----------0-----|
B|--------------------0---0-------0---0---|
G|---3/8--8--8--7-5\3-------3---3---------|
D|---5/10-10-10-8-7\5---------------------|
A|----------------------------0-----------|
E|----------------------------------------|

E|----------------------0-----------0-----|
B|--------------------0---0-------0---0---|
G|---3/8--8--8--7-5\3-------3---3---------|
D|---5/10-10-10-8-7\5---------------------|
A|----------------------------0-----------|
E|----------------------------------------|

F|-----------0-------------0------------0-----------0---------0-----------0-------|
C|---------0---0---------0---0--------0---0-------0---0-----0---0-------0---0-----|
F|-------3-------3-----3------------3-----------3---------2-------3---2-------3---|
C|---4/5-----------5------------4/5---------4/5---------4-----------4-------------|
F|-------------------0------------------------------------------------------------|
C|E|E|-------------------------------------------------------------------------------||-|

E|---------------------------|
B|---------------------------|
G|---0-----------0-----------|
D|---2-----------2-----------|
A|---0---0--3~---0---0--3~---|
E|---------------------------|


13:

E|---0-0-0-0-0-0--------------0-0-0-0-0-0-0-0-0-0-0-0-0-0-0-0---|
B|---1-1-1-1-0-0--------------0-0-0-0-0-0-0-0-0-0-0-0-0-0-0-0---|
G|---0-0-0-0-0-0--------------3-3-3-3-2-2-2-2-0-0-0-0-0-0-0-0---|
D|---1-1-1-1-0-0----0-1-0---0-0-0-0-0-0-0-0-0-5-5-5-5-5-5-5-5---|
A|---0-0-0-0-0-0--5-------5---3-3-3-3-2-2-2-2-5-5-5-5-5-5-5-5---|
E|---0-0-0-0-0-0--------------0-0-0-0-0-0-0-0-3-3-3-3-3-3-3-3---|

E|---0-0-0-0-0-0-0-0-0-0-0-0---|
B|---0-0-0-0-0-0-0-0-0-0-0-0---|
G|---0-0-0-2-2-2-3-3-3-0-0-0---| x5
D|---0-0-0-0-0-0-0-0-0-5-5-5---|
A|---0-0-0-2-2-2-3-3-3-5-5-5---|
E|---0-0-0-0-0-0-0-0-0-3-3-3---|


14:

F|---------0-----------0-----------0-----------0------------0------------0------------0--------------------|
C|-------0---0-------0---0-------0---0-------0------------0---0--------0---0--------0---0--------0-----0---|
F|-----7-------7---7-------7---7-------7---7------------8-------8----8-------8----8-------8----8-----8-----|
C|---8-----------------------8-------------------8-9-10-----------10-----------10-----------10-----9-------|
F|---------------0-----------------------0-----------------------------------------------------------------|
C|E|E|-------------------------------------------------------------------------------||--------------------------|

F|---------0-----------0-----------0-----------0------------0------------0-------|
C|-------0---0-------0---0-------0---0-------0------------0---0--------0---0-----|
F|-----7-------7---7-------7---7-------7---7------------8-------8----8-------8---|
C|---8-----------------------8-------------------8-9-10-----------10-------------|
F|---------------0-----------------------0---------------------------------------|
C|E|E|-------------------------------------------------------------------------------|||

E|---------------0---|
B|---------------0---|
G|---8--8--7-5-7\3---|
D|---10-10-8-7-8\5---|
A|---------------0---|
E|---------------0---|


************************************

| /   slide up
| \   slide down
| h   hammer-on
| p   pull-off
| ~   vibrato
Outros vídeos desta música
    1 exibições
      • ½ Tom
      • A
      • Bb
      • B
      • C
      • Db
      • D
      • Eb
      • E
      • F
      • F#
      • G
      • Ab
    • Adicionar à lista

    Afinação da cifra

    Afinador online

      0 comentários

      Ver todos os comentários

      Entre para o Cifra Club PRO

      Tenha acesso a benefícios exclusivos no App e no Site

      • Chega de anúncios

      • Mais recursos no app do Afinador

      • Atendimento Prioritário

      • Aumente seu limite de lista

      • Ajude a produzir mais conteúdo

      Cifra Club Pro

      Aproveite o Cifra Club com benefícios exclusivos e sem anúncios
      Cifra Club Pro
      Aproveite o Cifra Club com benefícios exclusivos e sem anúncios
      OK