Cifra Club

Aprenda

Tribuzana

Dazaranha

Cifra: Completa (violão e guitarra)
Quer fazer aulas de música com a gente? Responda essas perguntas
e nos ajude nesse projeto! →
tom: A
[Intro] E  A  E  A  E  A  E  A

E|----------------------------------------------------------------------------|
B|----------------------------------------------------------------------------|
G|-9--7-6--7-9~11~9-7-6---6-7-9~11~9-7-6-----6~7~6---6-7-9--11b12-s9-|
D|----------------------7----------------7-9-------7--------------------------|
A|----------------------------------------------------------------------------|
E|----------------------------------------------------------------------------|

E                     A
  Sou da caixa da água sou da caixa de som
E                         A                         C#m
  Subo o morro da caixa com um berimbau bom pra fazer
                           A                          E    A    
  Uma roda de povo só pra ver lá em cima o que há de novo

E                   A                               E
Te ver é um deserto perdido em não te ver fico também
                                   A
  Então tu traz a vitamina pra nutrir

  Que eu me enveneno ingerindo até dormir
E
  Nóia a tribuzana tá chegando
A                          C#m
  Vamos sair por aí só pra ver
D                              A           E  A  E  A 
  Se a gente se encontra se a gente se vê

E                     A
  Sou da caixa da água sou da caixa de som
E                         A                         C#m
  Subo o morro da caixa com um berimbau bom pra fazer
                           A                          E    A  
  Uma roda de povo só pra ver lá em cima o que há de novo

E                   A                               E
Te ver é um deserto perdido em não te ver fico também
                                   A
  Então tu traz a vitamina pra nutrir

  Que eu me enveneno ingerindo até dormir
E
  Nóia a tribuzana tá chegando
A                          C#m
  Vamos sair por aí só pra ver
D                              A          
  Se a gente se encontra se a gente se vê

[Solo] E  A  E  A  C#m  B  A  B7

E|------------------------------------------------------------------------7~9b-12-|
B|--------------------------------------------------------------------7~9----------|
G|-9--7-6---7-9~11~9-7-6-------7-6-6~4~6-4-6~9-8-6-8-6-4--4-4-6-7-9-9--------------|
D|-----------------------7-7~9-----------------------------------------------------|
A|---------------------------------------------------------------------------------|
E|---------------------------------------------------------------------------------|

E                   A                                E
Te ver é um deserto Perdido em não te ver fico também
                                   A
  Então tu traz a vitamina pra nutrir

  Que eu me enveneno ingerindo até dormir
E
  Nóia! A tribuzana tá chegando
A                          C#m
  Vamos sair por aí só pra ver
D                              A           E
  Se a gente se encontra se a gente se vê

( E  E  D  A ) 
( E  E  D  A ) 
( E  E  D  A ) 
( E  E  D  A ) 
( E  E  D  A ) 
( E  E  D  A ) 
( E  E  D  A ) 
( E  E  D  A ) 
( E  E  D  A ) 
( E  E  D  A )
Composição de Moriel Adriano
Colaboração e revisão:
  • Nelson Bornhausen
    • ½ Tom
    • A
    • Bb
    • B
    • C
    • Db
    • D
    • Eb
    • E
    • F
    • F#
    • G
    • Ab
  • Adicionar à lista

    0 comentários

    Ver todos os comentários

    Conseguiu tocar?

    1 Tocaram 0 Ainda não

    Grave um vídeo tocando Tribuzana e nos envie!

    00:00 / 00:00
    Outros vídeos desta música
    Repetir Qualidade Automático
    Outros vídeos desta música
    00:00 / 00:00
    Automático

    Cifra Club Pro

    Aproveite o Cifra Club com benefícios exclusivos e sem anúncios
    Cifra Club Pro
    Aproveite o Cifra Club com benefícios exclusivos e sem anúncios
    OK