Cifra Club

Aprenda

Woman From Tokyo

Deep Purple

Tab de baixo: Versão 3
|-----|-----|-----|-----|-----|-----|
|-----|-----|-----|-----|-----|-----|
|-----|-----|-----|-----|-----|-----|
|-----|-----|-----|-----|-----|-----|

|-----|-----|-----|-----|-----|-----|
|-----|-----|-----|-----|-----|-----|
|-----|-----|-----|-----|-----|-----|
|-----|-----|-----|-----|-----|-----|

|-----9-----|-----9-----|-----9-----|-----9-----|-----9-----|-----|
|*-------7--|--------7--|--------7--|--------7--|--------7--|--7--|
|*-7--------|--7--------|--7--------|--7--------|--7--------|-----|
|-----------|-----------|-----------|-----------|-----------|-----|

                                                              1___________________
|--------------------|-----------------|--------------------|---------------------|
|*-------------------|-----------------|--------------------|--------------------*|
|*-------------------|-----------------|--------------------|--------------------*|
|--0--0---0---0---0--|--0---0---0---0--|--0--0---0---0---0--|--0---0--4--5--6--7--|

 2____________
|-------------------|
|-------------------|
|-------------------|
|--0---0---0--1--2--|

   flying...                rising sun                                        everyone
|------------------------|------------------------|------------------------|------------------------|
|------------------2--5--|------------------2--5--|------------------2--5--|------------------2--5--|
|------2--3--4--5--------|------2--3--4--5--------|------2--3--4--5--------|------2--3--4--5--------|
|--3---------------------|--3---------------------|--3---------------------|--3---------------------|

   yeah                     whole new...                                      heart
|------------------------|------------------------|------------------------|--5-----------------------|
|------------------2--5--|------------------2--5--|------------------2--3--|-----------------2--3--5--|
|------2--3--4--5--------|------2--3--4--5--------|------2--3--4--5--------|-----2--3--4--5-----------|
|--3---------------------|--3---------------------|--3---------------------|--------------------------|

      my woman...                          (   segunda vez     )
|--------------------|--------------------------------------------|
|--------------------|--------------------------------------------|
|--------------------|------------------5--(------------------4)--|
|--0--0---0---0---0--|--0---0---0--5h7-----(--0---0---0--5h7---)--|

|--------------------|-------------------------------------------------|
|--------------------|-------------------------------------------------|
|--------------------|---------------------(-----------------4--5--7)--|
|--0--0---0---0---0--|--0---0--0--4--5--7--(--0--4--5--6--7---------)--|

|---------------------|---------------------|---------------------|para o coda
|---------------------|---------------------|---------------------|
|---------------------|------------------5--|---------------------|
|--0---0---0---0---0--|--0---0---0--5h7-----|--0---0---0---0---0--|

   to me                   talk about...            like a queen
|-------------------|----------------------------|------------------------|
|-------------------|----------------------2--5--|------------------2--5--|
|-------------------|------2--2---3--4--5--------|------2--3--4--5--------|
|--0---0---0--1--2--|--3-------------------------|--3---------------------|

                            eastern dream                                     feel like...
|------------------------|------------------------|------------------------|------------------------|
|------------------2--5--|------------------2--5--|------------------2--5--|------------------2--5--|
|------2--3--4--5--------|------2--3--4--5--------|------2--3--4--5--------|------2--3--4--5--------|
|--3---------------------|--3---------------------|--3---------------------|--3---------------------|

                            way
|------------------------|--------------------------|
|------------------2--4--|--5--------------2--3--5--|
|------2--3--4--5--------|-----2--3--4--5-----------|
|--3---------------------|--------------------------|

|--------------------|-----------------|-----------------|-----------------------|
|--------------------|-----------------|-----------------|-----------------------|
|--------------------|-----------------|-----------------|--------------4--5--7--|
|--0--0---0---0---0--|--0---0---0---0--|--0---0---0---0--|--4--5--6--7-----------|

|--------------------|-------------------|--------------------|-----------------|
|--------------------|-------------------|--------------------|-----------------|
|------7-------------|----------------2--|--------------------|-----------------|
|--0------0---0---0--|--0---0---0--4-----|--0--0---0---0---0--|--0---0---0---0--|

   but I'm at home...         just don't...
|----------------------|-----------------------|----------------------|-----------|-----------|
|----------------------|------7----------------|----------------------|-----------|-----------|
|----------------------|----------7--7---4-----|----------------------|-----------|-----------|
|--5---5---5--5--5--5--|--5-----------------5--|--3--3---3---3--3--3--|--3-----3--|--3-----3--|

|-----------|-----------|-----------|-----------|-----------|-----------|-----------|-----------|
|-----------|-----------|-----------|-----------|-----------|-----------|-----------|-----------|
|-----------|-----------|-----------|-----------|-----------|-----------|-----------|-----------|
|--3-----3--|--3-----3--|--3-----3--|--3-----3--|--3-----3--|--3-----3--|--3-----3--|--3-----3--|

|-----------|-----------|-----------|-----------|-----------|-----------|-----------|-----------|
|-----------|-----------|-----------|-----------|-----------|-----------|-----------|-----------|
|-----------|-----------|-----------|-----------|-----------|-----------|-----------|-----------|
|--3-----3--|--3-----3--|--3-----3--|--3-----3--|--3-----3--|--3-----3--|--3-----3--|--3-----3--|

|-----------|-----------|-----------|-----------|-----------|-----------|-----------|-----------|
|-----------|-----------|-----------|-----------|-----------|-----------|-----------|-----------|
|-----------|-----------|-----------|-----------|-----------|-----------|-----------|-----------|
|--3-----3--|--3-----3--|--3-----3--|--3-----3--|--3-----3--|--3-----3--|--3-----3--|--3-----3--|

|-----------|-----------|-----------|-----------|-----------|-----------|-----|
|-----------|-----------|-----------|-----------|-----------|-----------|-----|
|-----------|-----------|-----------|--3-----3--|--3-----3--|--3-----3--|--3--|
|--3-----3--|--3-----3--|--3-----3--|-----------|-----------|-----------|-----|

|--12--|------|--16-----14/12--|---------|---------------|---------------|-------------|
|------|--12--|----------------|--12/14--|--12---14--12--|--10-----9--10/|--12-----12--|
|------|------|----------------|---------|---------------|---------------|-------------|
|------|------|----------------|---------|---------------|---------------|-------------|

|--11h12-------11h12---12-----11h12--|--11h12--------11h12---12---11h12--11--|--12--|--12--|
|------------------------------------|---------------------------------------|------|------|
|---------10-------------------------|----------10---------------------------|--10--|--10--|
|------------------------------------|---------------------------------------|------|------|

|--------------------|---------------------|--------------------|--------------------------|
|--------------------|---------------------|--------------------|--------------------------|
|--------------------|------------------5--|--------------------|-----------------4--5--7--|
|--0--0---0---0---0--|--0---0---0--5h7-----|--0--0---0---0---0--|--0--4--5--6--7-----------|

|--------------------|---------------------|--------------------|------------------------|
|--------------------|---------------------|--------------------|------------------------|
|--------------------|------------------5--|--------------------|------------------------|
|--0--0---0---0---0--|--0---0---0--5h7-----|--0--0---0---0---0--|--0--0---0--0--0--1--2--|

       rising...            neon...                  shining...               crazy...
|------------------------|------------------------|------------------------|------------------------|
|------------------2--5--|------------------2--5--|------------------2--5--|------------------2--5--|
|------2--3--4--5--------|------2--3--4--5--------|------2--3--4--5--------|------2--3--4--5--------|
|--3---------------------|--3---------------------|--3---------------------|--3---------------------|

   on like...                                                     I get       high
|------------------------|------------------------|------------------------|--5-----------------------|
|------------------2--5--|------------------2--5--|------------------2--3--|-----------------2--3--5--|
|------2--3--4--5--------|------2--3--4--5--------|------2--3--4--5--------|-----2--3--4--5-----------|
|--3---------------------|--3---------------------|--3---------------------|--------------------------|

(coda)

   to me
|-----------------|
|-----------------|
|-----------------|
|--0---0---0---0--|

|--------------------|--------------------|----------------------|----------------------|
|--------------------|--------------------|----------------------|----------------------|
|--------------------|--------------------|-----7---7---7--------|---------7---7--5--4--|
|--7--7---7---7---7--|--5--5---5---5---5--|--0-------------0--0--|--0--0----------------|

|--------------------|------------------------|--------------------------|--------------------------|
|--------------------|-----7--7------7--7--7--|--------------------------|--------------------------|
|--------------------|------------------------|-----7--7--7-----7--7--7--|-----7--7--7-----7--7--7--|
|--7--7---7---7---7--|--5---------5-----------|--0-----------0-----------|--0-----------0-----------|

|--------------------|--------------------|----------------------|------------------------|
|--------------------|--------------------|----------------------|------------------------|
|--------------------|--------------------|-----7---7-----7---7--|-----7---7--------------|
|--7--7---7---7---7--|--5--5---5---5---5--|--0---------0---------|--0---------0--4--5--6--|

|--------------------|--------------------|--------------------|-----------------|
|--------------------|--------------------|--------------------|-----------------|
|--------------------|--------------------|--3--3---3---3---3--|--3---3---3---3--|
|--7--7---7---7---7--|--5--5---5---5---5--|--------------------|-----------------|

|--------------------|-----------------|--------------------|---------------------|
|--------------------|-----------------|--------------------|---------------------|
|--3--3---3---3---3--|--3---3---3---3--|--------------------|------------------5--|
|--------------------|-----------------|--0--0---0---0---0--|--0---0---0--5h7-----|

|--------------------|--------------------------|--------------------|-----------------|
|--------------------|--------------------------|--------------------|-----------------|
|--------------------|--------------------4--5--|--------------------|-----------------|
|--0--0---0---0---0--|--0--4--5--6--7--7--------|--0--0---0---0---0--|--0---0---0---0--|

|--------------------|--------------------------|--------------------|-----------------------|
|--------------------|--------------------------|--------------------|-----------------------|
|--7-----------------|--------------------------|--------------------|--------------------5--|
|-----0---0---0---0--|--0--4--5--6--7--5--5--4--|--0--0---0---0---0--|--0---0--0--0--5h7-----|

|--------------------|--------------------------|
|--------------------|--------------------------|
|--------------------|--------------------------|
|--0--0---0---0---0--|--0--0--0--0--4--5--6--7--|

|--------------------|--------------------------|--------------------------------|
|--------------------|--------------------------|--------------------------------|
|--------------------|--------------------------|--(--------2--1--0-----------)--|
|--0--0---0---0---0--|--0--0--0--0--4--5--6--7--|--(--0--0-----------4--3--2--)--|

|--------------------|---------------------|--------------------|--------------------------|
|--------------------|---------------------|--------------------|--------------------------|
|--------------------|------------------5--|--------------------|--------------5--6--7-----|
|--0--0---0---0---0--|--0---0---0--5h7-----|--0--0---0---0---0--|--0--5--6--7-----------7--|

|--------------------|------------------------|--------------------|--------------------------|
|--------------------|------------------------|--------------------|--------------------------|
|--------------------|------------------------|--------------------|--------1--0--------------|
|--0--0---0---0---0--|--0--0---0---0--5h7--5--|--0--0---0---0---0--|--0--0--------4--3--2--1--|

|--------------------|-----------------|--------------------|----------------------------|
|--------------------|-----------------|--------------------|----------------------------|
|--------------------|-----------------|--------------------|--5/7--7--5--5-----------5--|
|--0--0---0---0---0--|--0---0---0---0--|--0--0---0---0---0--|----------------7--6--7-----|

|--------------------|-----------------|
|--------------------|-----------------|
|--------------------|-----------------|
|--0--0---0---0---0--|--0---0---0---0--|
Composição de Ian Gillan / Ian Paice / Jon Lord / Ritchie Blackmore / Roger Glover
Colaboração e revisão:
  • valdir júnior
48 exibições

0 comentários

Mostrar mais comentários

Conseguiu tocar?

0 Tocaram 0 Ainda não

Grave um vídeo tocando Woman From Tokyo e mande pra gente!

00:00 / 00:00
outros vídeos desta música
repetir qualidade Automático
Outros vídeos desta música
00:00 / 00:00
Automático

Cifra Club Pro

Aproveite o Cifra Club com benefícios exclusivos e sem anúncios
Cifra Club Pro
Aproveite o Cifra Club com benefícios exclusivos e sem anúncios
OK