Cifra Club

Pour Some Sugar On Me

Def Leppard

Cifra: Principal (violão e guitarra)
tom: A
Intro:
E|----------------------------------------------------------
B|----------------------------------------------------------
G|----6-4---4--6------4--4-6--------6-4--4--6----4--3-------
D|--------6-------------------------------------------------
A|--4-----------------------------4-------------------------
E|----------------------------------------------------------

E|----------------------------------------------------4-----
B|----------------------------------------------------4-----
G|----6-4---4--6------4--4-6--------6-4----4--4---6---4-----
D|--------6-----------------------------6--4--4---6---4-----
A|--4-----------------------------4-------------------------
E|----------------------------------------------------------

Verso:
.. you're man..
E|-------------------------
B|-------------------------
G|-------------------------
D|-----6----6--------6--6--
A|-----4----4--------4--4--
E|-----------------6-------

" squeeze a little..."

E|----------------------------------------------------------------------
B|----------------------------------------------------------------------
G|----------------------------------------------------------------------
D|----------------------------------------------------------------------
A|--4-4-4-4-4-4-4-4-4-4-4-4-4-4-4-4-4-4-4-4-4-4-4-4-4-4-4-4-4-4-4-4-4---
E|----------------------------------------------------------------------

Refrão:
E|----------------------------------------------------------------------
B|----------------------------------------------------------------------
G|--------6----4-----------------6----6-----------------4----2----------
D|---4----6----4------------4----6----6------------2----4----2----------
A|---4----4----2------------4----4----4------------2----2----0----------
E|---2----------------------2----------------------0--------------------

E|---------------------------------------------------------------------
B|---------------------------------------------------------------------
G|--------2----4-----------------------2-2-----4-4-----4-4------4/6-6--
D|---2----2----4---------------2-2-----2-2-----4-4-----4-4------4/6-6--
A|---2----0----2---------------2-2-----0-0-----2-2-----2-2------2/4-4--
E|---2-------------------------0-0-------------------------------------

Solo:
E|------------------------------------------------------------------------------
B|------------------------------------------------------------------------------
G|--7-----7------7-7-6-6-7-7-6-7-7-7-6-6-7-7-6-6-7-7-6-6-7-7-6-7-7-7-6-6-7-7-6--
D|--7-----7---------------------------------------------------------------------
A|------------------------------------------------------------------------------
E|------------------------------------------------------------------------------

E|----------------------------------------------------------------------------
B|----------------------------------------------------------------------------
G|----------------------------------------------------------------------------
D|--2-2-------2-2--2----------------7-7-6-6-7-7-6-7-7-7-6-6-7-7-6-6-7-9-7-6-7-
A|--2-2-------2-2--2-------7--5--6--------------------------------------------
E|--0-0-------0-0--0---0------------------------------------------------------

E|------------------------------------------------------------
B|------------------------------------------------------------
G|---6-7---7-6---6--------------------------------------------
D|-9-----9-----9---6-7-9-2--2---------------------------------
A|-----------------------2-----2--4--4--5---2--------5---7\---
E|-----------------------0------------------0--0-0-0---0------

E|-0-0-0-0-12-12-12-12-0-12-------------------------
B|----------------------------10-12-14-12-10-12-14--
G|-9-9-9-9-9--9--9--9--9-9--------------------------
D|--------------------------------------------------
A|--------------------------------------------------
E|--------------------------------------------------

E|------------------------------------------------------------------------------
B|--19>(21)--19>(21)--19>(21)----17-19------19-----19---17--19--19>(21)--17-----
G|------------------------------------------------------------------------------
D|------------------------------------------------------------------------------
A|------------------------------------------------------------------------------
E|------------------------------------------------------------------------------

E|------------------------------------------------19-------------------------
B|--17>(19)--17------17--19>(21)-19--------17-17------17--17-17-17-17-17-17--
G|---------------------------------------------------------------------------
D|---------------------------------------------------------------------------
A|---------------------------------------------------------------------------
E|---------------------------------------------------------------------------

E|--19>(21--19--19>(21)-------19>(21)>19--16--19---19---19--19---19---19--
B|------------------------------------------------------------------------
G|------------------------------------------------------------------------
D|------------------------------------------------------------------------
A|------------------------------------------------------------------------
E|------------------------------------------------------------------------

E|--------------------
B|--------------------
G|---------2-2---4-4--
D|--2-2----2-2---4-4--
A|--2-2----0-0---2-2--
E|--0-0---------------

Intro: C#5

Step inside, walk this way
You and me babe, Hey, hey!
C#5
Love is like a bomb, baby, c'mon get it on
Livin' like a lover with a radar phone
Lookin' like a tramp, like a video vamp
Demolition woman, can I be your man?
Razzle 'n' a dazzle 'n' a flash a little light
Television lover, baby, go all night
Sometime, anytime, sugar me sweet
Little miss ah innocent sugar me, yeah
C#5
Hey!
       F#5
C'mon, take a bottle, shake it up
E5                B5
Break the bubble, break it up

E         A        E
Pour some sugar on me
Ooh, in the name of love
E         A        E
Pour some sugar on me
C'mon fire me up
E         A        E
Pour your sugar on me
Oh, I can't get enough

C#5
I'm hot, sticky sweet
From my head to my feet yeah

Listen! red light, yellow light, green-a-light go!
Crazy little woman in a one man show
Mirror queen, mannequin, rhythm of love
Sweet dream, saccharine, loosen up
C#5
You gotta squeeze a little, squeeze a little
Tease a little more
Easy operator come a knockin' on my door
Sometime, anytime, sugar me sweet
Little miss innocent sugar me, yeah

F#5
Take a bottle, shake it up
E5                B5
Break the bubble, break it up

E         A        B
Pour some sugar on me
Ooh, in the name of love
E         A        B
Pour some sugar on me
C'mon fire me up
E         A        B
Pour your sugar on me
Oh, I can't get enough

C#5
I'm hot, sticky sweet
From my head to my feet yeah

(Solo)

E5
You got the peaches, I got the cream
Sweet to taste, saccharine e-ch ords.com
'Cos I'm hot, say what, sticky sweet
From my head, my head, to my feet

Do you take sugar? one lump or two?
F#5
Take a bottle, shake it up
E5                B5
Break the bubble, break it up

Pour some sugar on me
Ooh, in the name of love
Pour some sugar on me
C'mon fire me up
Pour your sugar on me
Oh, I can't get enough

Pour some sugar on me
Oh, in the name of love
Pour some sugar on me
Get it, come get it
Pour your sugar on me
Ooh
Pour some sugar on me
Yeah! Sugar me!
Composição de Joe Elliot / Joe Elliott / Phil Collen / Rick Allen / Rick Savage / Robert John Mutt Lange / Steve Clark
Colaboração e revisão:
  • Sergio Nascimento
24.229 exibições
    • ½ Tom
    • A
    • Bb
    • B
    • C
    • Db
    • D
    • Eb
    • E
    • F
    • F#
    • G
    • Ab
  • Adicionar à lista

    0 comentários

    Ver todos os comentários

    Conseguiu tocar?

    6 Tocaram 0 Ainda não

    Grave um vídeo tocando Pour Some Sugar On Me e nos envie!

    00:00 / 00:00
    Outros vídeos desta música
    Repetir Qualidade Automático
    Outros vídeos desta música
    00:00 / 00:00
    Automático

    Cifra Club Pro

    Aproveite o Cifra Club com benefícios exclusivos e sem anúncios
    Cifra Club Pro
    Aproveite o Cifra Club com benefícios exclusivos e sem anúncios
    OK