Cifra Club

Aprenda

Sabes Quem Sou

Diego Fernandes

Tab de baixo: Principal
G|---------------|-------------------|
D|---------------|-------------------|
A|--3-3----5-----|-0-0—2h4-----------|
E|------3h5------|--------1----------|

G|------------|---------------|
D|------------|---------------|
A|--3-3-3-5---|---------------|
E|------------|-3-3-3-3-------|

G|------------|---------------|
D|------------|---------------|
A|------------|---------------|
E|--5-5-5-3---|-1-1-1-1-------|
Composição de Diego Fernandes
Colaboração e revisão:
  • Rodriigo Pereeira
293 exibições

0 comentários

Ver todos os comentários
00:00 / 00:00
outros vídeos desta música
repetir qualidade Automático
Outros vídeos desta música
00:00 / 00:00
Automático

Cifra Club Pro

Aproveite o Cifra Club com benefícios exclusivos e sem anúncios
Cifra Club Pro
Aproveite o Cifra Club com benefícios exclusivos e sem anúncios
OK