Cifra Club

Nem Se Fosse Combinado

Diego e Victor Hugo

Cifra: Principal (violão e guitarra)
tom: D
E|-----------------------------------------------------------|
B|-/10-10--8-8--7-8-10---/10-10--8-8--7-8--------------------|
G|-/11-11--9-9--7-9-11---/11-11--9-9--7-9-9------------2-----|
D|----------------------------------------9----2-4-4/5-------|
A|-------------------------------------------------------5---|
E|-----------------------------------------------------------|

  D
E no deslize de dedo acertei em cheio quem tinha que achar
  Em
Mas de 600 contatos mas é sempre o mesmo que eu quero chamar
   G
Vou recair denovo na mesma pessoa
      Gm
Mas quando o beijo é bom anula as outras bocas

Em                                  Bm
E ai, nao e vergonha voce também assumir
                       Em
Na sua lista eu sou 5 estrelas
                            A
Encurta essa distancia de saudade e me beija

                   D                Em
Parou na minha cama, parei no seu abraço
            G                           D
Nao daria tanto certo nem se fosse combinado
            D                   Em
Cai na sua vida de paraquedas fechado
                G       Gm           D
Sai da minha boca eu te amo eu to ferrado

                   D                Em
Parou na minha cama, parei no seu abraço
            G                           D
Nao daria tanto certo nem se fosse combinado
            D                   Em
Cai na sua vida de paraquedas fechado
                G       Gm           D
Sai da minha boca eu te amo eu to ferrado

E|------------------------------------------------------------------------------|
B|-/10-10--8-8--7-8-10---/10-10--8-8--7-8-----/10-10--8-8--7-8------------------|
G|-/11-11--9-9--7-9-11---/11-11--9-9--7-9-9---/11-11--9-9--7-9-----9--9-10-9-10-|
D|----------------------------------------9---------------------/9--------------|
A|------------------------------------------------------------------------------|
E|------------------------------------------------------------------------------|

E|-----------------------------------------------------------------|
B|-/10-10--8-8--7-8-10---/10-10--8-8--7-8-----------------7h8p7----|
G|-/11-11--9-9--7-9-11---/11-11--9-9--7-9-9---------------------9--|
D|----------------------------------------9----2-4-4/5--7----------|
A|-----------------------------------------------------------------|
E|-----------------------------------------------------------------|

Compositor não encontrado.
Colaboração e revisão:
  • Diego Costa
  • caio ventura
13.572 exibições
    • ½ Tom
    • A
    • Bb
    • B
    • C
    • Db
    • D
    • Eb
    • E
    • F
    • F#
    • G
    • Ab
  • Adicionar à lista

    0 comentários

    Ver todos os comentários

    Conseguiu tocar?

    2 Tocaram 1 Ainda não

    Grave um vídeo tocando Nem Se Fosse Combinado e nos envie!

    00:00 / 00:00
    Outros vídeos desta música
    Repetir Qualidade Automático
    Outros vídeos desta música
    00:00 / 00:00
    Automático

    Cifra Club Pro

    Aproveite o Cifra Club com benefícios exclusivos e sem anúncios
    Cifra Club Pro
    Aproveite o Cifra Club com benefícios exclusivos e sem anúncios
    OK