Cifra Club

Prefiro Nem Perguntar

Diego e Victor Hugo

Cifra: Principal (violão e guitarra)
tom: G
[Intro] Em7  G  Em7  D/F#  
        G  D  D4  D

E|-/3~-2------------------------------------|
B|-------3-3/5~--3p0------------------------|
G|-------------------4~--2-0----------------|
D|----------------------------4-5-2--4-5~---|
A|------------------------------------------|
E|------------------------------------------|

E|------------------------------------------|
B|-3/5-5-5-5\3-3----------------------------|
G|-4/5-5-5-5\4-4--2/4-4-7/9-9-7-------------|
D|------------------------------------------|
A|------------------------------------------|
E|------------------------------------------|

E|------------------------------------------|
B|-7/8-7--7h8-7-5~--------------------------|
G|------------------------------------------|
D|------------------------------------------|
A|------------------------------------------|
E|------------------------------------------|

[Primeira Parte]

Em7                                        Bm
Eu ouvir dizer que você tá novamente na cidade
                                            C9
Ontem pensei em ligar mas quando vi já era tarde
                                               Em7   D
Bem melhor pensar assim do que na falta de coragem

[Pré-Refrão]

 C9
Sei vai ser inevitável a gente se encontrar
 Em7
Sei é natural a gente se esbarrar
    D/F#    G
Os mesmos amigos

Os mesmos lugares
      C9
Só a gente sem graça tentando disfarçar

[Refrão]

               G
Como tá a sua vida?

O seu aniversário?
    Am7   G/B   C9
Cê tava acompanhada no último ano?
          Em7
E a faculdade? Deve tá quase formando
         Am7
E o coração como é que tá?
                       G/B  C
Quer saber, deixa pra lá
                   Em7  D/F#  G
Prefiro nem perguntar

[Solo] C9  Em7  D/F#  G
       Em7  D/F#  A

E|------------------------------------------|
B|-3/5-5-5-5\3-3----------------------------|
G|-4/5-5-5-5\4-4--2/4-4-7/9-9-7-7-----------|
D|------------------------------------------|
A|------------------------------------------|
E|------------------------------------------|

E|------------------------------------------|
B|------------------------------------------|
G|-7/9-9-9-9p7-7/9--5-5-7/9-9p7--7/9--------|
D|------------------------------------------|
A|------------------------------------------|
E|------------------------------------------|

E|------------------------------------------|
B|-----7-8-7----7/8-7------7-8-8/10---------|
G|-7-9-------7---------4/7------------------|
D|------------------------------------------|
A|------------------------------------------|
E|------------------------------------------|

E|------------------------------------------|
B|-10-10-10-10-10-10------------------------|
G|------------------------------------------|
D|------------------------------------------|
A|------------------------------------------|
E|------------------------------------------|

[Pré-Refrão]

 C9
Sei vai ser inevitável a gente se encontrar
 Em7
Sei é natural a gente se esbarrar
    D/F#    G
Os mesmos amigos

Os mesmos lugares
      C9
Só a gente sem graça tentando disfarçar

[Refrão]

               G
Como tá a sua vida?

O seu aniversário?
    Am7   G/B   C9
Cê tava acompanhada no último ano?
          Em7
E a faculdade? Deve tá quase formando
         Am7
E o coração como é que tá?
                       G/B  C
Quer saber, deixa pra lá

               G
Como tá a sua vida?

O seu aniversário?
    Am7   G/B   C9
Cê tava acompanhada no último ano?
          Em7
E a faculdade? Deve tá quase formando
         Am7
E o coração como é que tá?
                       G/B  C
Quer saber, deixa pra lá
                   Em7  
Prefiro nem perguntar
             D/F# G
Prefiro nem pe__rguntar
                Em7
Prefiro nem perguntar
00:00 / 00:00
Outros vídeos desta música
Repetir
Outros vídeos desta música
Compositor não encontrado.
Colaboração e revisão:
  • Thiago Almeida
  • Eduardo Lopes
96.693 exibições
    • ½ Tom
    • A
    • Bb
    • B
    • C
    • Db
    • D
    • Eb
    • E
    • F
    • F#
    • G
    • Ab
  • Adicionar à lista

    0 comentários

    Ver todos os comentários

    Conseguiu tocar?

    16 Tocaram 4 Ainda não

    Grave um vídeo tocando Prefiro Nem Perguntar e nos envie!

    00:00 / 00:00

    Cifra Club Pro

    Aproveite o Cifra Club com benefícios exclusivos e sem anúncios
    Cifra Club Pro
    Aproveite o Cifra Club com benefícios exclusivos e sem anúncios
    OK