Cifra Club

Goin Home

Dinosaur Jr

Cifra: Principal (violão e guitarra)
Tom: C
* (by way of * (andy))



     Fmaj7       C                              G7               Am 
E|---0-------0-------------------------------------------1-------1-------0-3/5-
B|-----1 ------1------1-------1----------------------------0--------2---------
G|-----------------0----------0--------0---------------------0---------2------
D|-3------3------2---------2--------0-----0-----------0----------------------
A|-----------------------3-------2-----------0-----2 ----------0--0--0--------
E|----------------------------------------------3-----------------------------     Fmaj7
E|---0-|-0------0------------------0-------0----------0---------|--
B|---1-|---1------1--------1--0--1---1---1---1----------1---1---|--(not quite 
G|---2-|-----2------2------------------2-------2----------2----.|-- sure about
D|-3---|--------------0--3-----------------------0--3----------.|-- this whole
A|-----|--------------------------------------------------------|-- part.) 
E|-----|--------------------------------------------------------|--


Chorus chords:   C  G   C  G   Fmaj7  Fm  G#
                        ^                 ^
Fmaj7 --->  133210   (Use your thumb for the low E string)  
G     --->  320003
Fm    --->  133111  (I'm not quite sure if * plays this chord during
that                       chorus part). 
C     --->  332010
G7    --->  320001
Am    --->  X02210
Any comments or questions would be greatly appreciated.  Send it to this 
address:  *
Thanks.
exibições 970
Acordes para:
    Composição: J Mascis

    0 comentários

    mostrar mais comentários

    Conseguiu tocar?

    0 tocaram 0 ainda não

    Grave um vídeo tocando Goin Home e mande pra gente!

    00:00 / 00:00
    outros vídeos desta música
    repetir qualidade Automático
    Outros vídeos desta música
    00:00 / 00:00
    Automático
    OK