Cifra Club

Aprenda

Fora da Lei

Ed Motta

Tab de baixo: Ao-vivo
Já pensou em usar uma coleção de roupas do Cifra Club? Responda as perguntas abaixo e nos ajude nessa missão! →
Intro
G|---------2-------|--------------------------9-11--|
D|----2h4----2-4—--|---2h4--9h8--9-x-10-x-11--------|
A|-----------------|--------------------------------|
E|-2---------------|-2------------------------------|
 
G|---------2-------|----------4-------|
D|----2h4----2-4—--|----2h4------2-4--|
A|-----------------|------------------|
E|-2---------------|-2----------------|2x


G|-----------------------------|
D|---4-------4—4--4-4-----4----|
A|-------4h6----------4-4---4--|
E|-2--------------------------2|3x

G|--------------------|
D|---4-------4—4------|
A|-------4h6----------|
E|-2------------------|

VOCAL
            toca duas vezes essa parte antes do refrão     
G|------------------------|-----------------------|-----------------------|-------------------|
D|----4--4-4-----—--------|--4-4-------------4----|----4--4-4-------------|--4-4---------4~---|
A|-----------6--6-6-4-----|-------6--6-6--4---4---|-----------6--6-6-4----|----------4h6------|
E|-2------------------2---|--------------------2--|-2------------------2--|------4h6----------|

G|------------------------------------4------5/4---------------------------|
D|----4--4-4-----—-----------------------4/5-----5-------------------------|
A|-----------6--6-6-4---------4--3-2---------------7-7--5--5-5-4--4-4-2----|
E|-2------------------2---4h6--6----------------------------------------2--|


    Refrão   
G|------------------------------|---------------------------|
D|-------------7--------------9-|------------7-—-—-—--------|
A|-7-7-------7----5-5-------9---|-7-7-------7---5-5-----4---|
E|-----7-6-5----------5-6-7-----|-----7-6-5---------5-7-----|


 Segunda parte             
G|----------------------------------------------------|
D|---4-------4-—-4-4--4------4-3-2-2------------------|
A|-------4h6---6-----4-3-2-2--------5--5-5-4--4-4-2---|
E|-2------------------------------------------------2-|3x

G|-----------------------------------|
D|---4-------4-—-4-4--4------4-3-2---|
A|-------4h6---6-----4-3-2-2---------|
E|-2---------------------------------|

Intro 2

G|---------2-------|----------4-------|
D|----2h4----2-4—--|----2h4------2-4--|
A|-----------------|------------------|
E|-2---------------|-2----------------|

G|---------2-------|----------4-------|
D|----2h4----2-4—--|----2h4------2-4--|
A|-----------------|------------------|
E|-2---------------|-2----------------|
Composição de Ed Motta / Rita Lee
Colaboração e revisão:
  • Rodrigo Pereira
126 exibições

0 comentários

Ver todos os comentários

Conseguiu tocar?

1 Tocaram 0 Ainda não

Grave um vídeo tocando Fora da Lei e nos envie!

00:00 / 00:00
Outros vídeos desta música
Repetir Qualidade Automático
Outros vídeos desta música
00:00 / 00:00
Automático

Cifra Club Pro

Aproveite o Cifra Club com benefícios exclusivos e sem anúncios
Cifra Club Pro
Aproveite o Cifra Club com benefícios exclusivos e sem anúncios
OK