Cifra Club

Grande É o Senhor

Eli Soares

Cifra: Principal (violão e guitarra)
Selo Cifra Club: esta cifra foi revisada para atender aos critérios oficiais da nossa Equipe de Qualidade.
tom: C
[Intro] F  Em7  Dm7  C/E  
        F  Em7  Dm7  

[Solo]

E|-----------------------------------------|
B|--6/8--6-6--5-5-----------6/8--6-6--5-5--|
G|-----------------7-7--5------------------|
D|-----------------------------------------|
A|-----------------------------------------|
E|-----------------------------------------|

E|-----------------------------------------|
B|--6/8--6-6--5-5--------------------------|
G|-5---------------7-7-5-------------------|
D|-----------------------5h7---------------|
A|-----------------------------------------|
E|-----------------------------------------|

[Primeira Parte]

  C            F/C
Grande é o Senhor
                   C
E mui digno de louvor
      F/C
Na cidade do nosso Deus
     G/B   Am7
Seu Santo monte
G/B  C               Dm7  Em7  F7M  G4
     Alegria de toda ter - ra - a - a

[Segunda Parte]

 C            F/C
Grande é o Senhor
                       C
Em quem nós temos a vitória
       F/C
E que nos ajuda
             Am
Contra o inimigo
G/B     C9
    Por isso diante
              Dm7  Em7  F7M  G4
Dele nos prostramos

[Refrão]

    C
Queremos o Teu
             C7M
Nome engrandecer
F7M
E agradecer-Te
C/E       Dm7             G
Por Tua obra em nossas vidas

     C
Confiamos em Teu
           C7M
Infinito amor
      F7M                C/E
Pois só Tu és o Deus eterno
Dm7        G4
Sobre toda terra e céus

[Interlúdio]

( F  C/E  Dm7  C/E )
( F  Em7  Dm7 )

E|-----------------------------------------|
B|--6/8--6-6--5-5-----------6/8--6-6--5-5--|
G|-----------------7-7--5------------------|
D|-----------------------------------------|
A|-----------------------------------------|
E|-----------------------------------------|

E|-----------------------------------------|
B|--6/8--6-6--5-5--------------------------|
G|-5---------------7-7--------9------------|
D|----------------------5--7----7-7/10-----|
A|-----------------------------------------|
E|-----------------------------------------|

[Segunda Parte]

 C             F/C
Grande é o Senhor
                       C
Em quem nós temos a vitória
       F/C
E que nos ajuda
        G/B  Am7
Contra o inimigo
G/B     C9
    Por isso diante
           Dm7  Em7  F7M  G4(7/9)
Dele nos prostramos

[Refrão]

    C
Queremos o Teu
            C7M
Nome engrandecer
F7M
E agradecer-Te
C/E         Dm7             G4
    Por Tua obra em nossas vidas

     C
Confiamos em Teu
           C7M
Infinito amor
      F7M                 C/E      
Pois só Tu és o Deus eterno
 Dm7        G4
Sobre toda terra

    C
Queremos o Teu
             C7M
Nome engrandecer
F2             A7(4/9)
E agradecer-Te
         Dm7             G/B
Por Tua obra em nossas vidas

     C
Confiamos em Teu
           C7M
Infinito amor
      F7M                  C/E
Pois só Tu és o Deus eterno
 Dm7        G4      C9
Sobre toda terra e céus
00:00 / 00:00
Outros vídeos desta música
Repetir
Outros vídeos desta música
138.558 exibições
    • ½ Tom
    • A
    • Bb
    • B
    • C
    • Db
    • D
    • Eb
    • E
    • F
    • F#
    • G
    • Ab
  • Adicionar à lista

Afinação da cifra

Afinador online

    0 comentários

    Ver todos os comentários

    Entre para o Cifra Club PRO

    Tenha acesso a benefícios exclusivos no App e no Site

    • Chega de anúncios

    • Mais recursos no app do Afinador

    • Atendimento Prioritário

    • Aumente seu limite de lista

    • Ajude a produzir mais conteúdo

    00:00 / 00:00

    Cifra Club Pro

    Aproveite o Cifra Club com benefícios exclusivos e sem anúncios
    Cifra Club Pro
    Aproveite o Cifra Club com benefícios exclusivos e sem anúncios
    OK