Cifra Club

Os Anjos Te Louvam

Eli Soares

Cifra: Principal (violão e guitarra)
tom: C#m
[Intro] C#m7  F#m7(11)  C#m7  F#m7(11)  

[Tab - Riff 1]

E|-----------------------------------------------------|
B|-----------------------------------------------------|
G|-4-3-2-1-4-------------------------------------------|
D|-----------------------------------------------------|
A|-----------------------------------------------------|
E|-----------------------------------------------------|

[Tab - Intro]

Parte 1 de 2
   C#m7        
E|-------x-----------x-----------x----------x----------|
B|-2-----x------2-2--x-----2-----x------2-2-x----------|
G|-4-----x------4-4--x-----4-----x------4-4-x----------|
D|-2-x---x-x----2-2--x-x---2-x---x-x----2-2-x-x--------|
A|-4---x-x---x--4----x---x-----x-x---x--4---x---x------|
E|-------x-----------x-----------x----------x----------|

Parte 2 de 2
   F#m7(11)
E|-------x---------x-----------x-----------------------|
B|-0-----x-----0-0-x-----0-----x-----------------------|
G|-2-----x-----2-2-x-----2-----x-----------------------|
D|-2-x---x-x---2-2-x-x---2-x---x-----------------------|
A|-------x---------x-----------x-----------------------|
E|-2---x-x---x-2---x---x-----x-x-----------------------|

[Primeira Parte]

[Tab - Primeira Parte] 

Parte 1 de 4
   C#m7         C#m7(9)     F#m7(11)     G#m7(11)
E|-------x-----------x-----------x---------x-----------|
B|-2-----x------4-4--x-----0-----x-----2-2-x-----------|
G|-4-----x------4-4--x-----2-----x-----4-4-x-----------|
D|-2-x---x-x----2-2--x-x---2-x---x-x---4-4-x-x---------|
A|-4---x-x---x--4----x---x-------x---------x---x-------|
E|-------x-----------x-----2---x-x---x-4---x-----------|

Parte 2 de 4
   C#m7(9)                 F#m7(11)    G#m7(11)
E|-------x-----------x-----------x---------x-----------|
B|-4-----x------4-4--x-----0-----x-----2-2-x-----------|
G|-4-----x------4-4--x-----2-----x-----4-4-x-----------| (2x)
D|-2-x---x-x----2-2--x-x---2-x---x-x---4-4-x-x---------|
A|-----x-x---x--4----x---x-------x---------x---x-------|
E|-------x-----------x-----2---x-x---x-4---x-----------|

Parte 3 de 4
   C#m7(9)                 F#m7(11)
E|-------x-----------x-----------x---------------------|
B|-4-----x------4-4--x-----0-----x---------------------|
G|-4-----x------4-4--x-----2-----x---------------------|
D|-2-x---x-x----2-2--x-x---2-x---x---------------------|
A|-----x-x---x--4----x---x-------x---------------------|
E|-------x-----------x-----2---x-x---------------------|

Parte 4 de 4
   C#m7(9)                 A7M  G#m7 F#m7 G#m7    
E|-------x-----------x---------------------------------|
B|-4-----x------4-4--x-----5---4----2----4-------------|
G|-4-----x------4-4--x-----6---4----2----4-------------|
D|-2-x---x-x----2-2--x-x---6---4----2----4-------------|
A|-----x-x---x--4----x---x-----------------------------|
E|-------x-----------x-----5---4----2----4-------------|

C#m7                     C#m7(9)
     Maravilhoso, conselheiro

Deus forte
         F#m7(11)               G#m7(11)
Pai da eternidade, príncipe da paz
C#m7(9)
       O Deus que vence 

Todas as batalhas
   F#m7(11)      G#m7(11)
O Deus que tudo faz
C#m7(9)
        A Terra inteira exalta
       F#m7(11)   G#m7(11)
A grandeza desse Deus
C#m7(9)
        Pois ele é sempre fiel
      F#m7(11)   
E te dá vitória

C#m7                     C#m7(9)
     Maravilhoso, conselheiro

Deus forte
         F#m7(11)               G#m7(11)
Pai da eternidade, príncipe da paz
C#m7(9)
       O Deus que vence 

Todas as batalhas
   F#m7(11)      G#m7(11)
O Deus que tudo faz
C#m7(9)
        A Terra inteira exalta
       F#m7(11)   G#m7(11)
A grandeza desse Deus
C#m7(9)
        Pois ele é sempre fiel
      A7M  G#m7   
E te dá vitória

[Refrão 1]

[Tab - Refrão 1]

Parte 1 de 6
   A7M(9)   G#7(9+/13-)         C#m7(9/11) F#7(13)  
E|-7-7-7-x--7-7-----------------2-2-2-x----------x-----|
B|-5-5-5-x--5-5-----------------4-4-4-x----4-4-4-x-----|
G|-6-6-6-x--5-5-----------------4-4-4-x----3-3-3-x-----|
D|-6-6-6-x---------2-3-4--------2-2-2-x----2-2-2-x-----|
A|-0-0-0-x---------------4-3-2--4-4-4-x----------x-----|
E|-------x--4-4-----------------------x----2-2-2-x-----|
   ↓ ↓ ↑ ↓   ↓ ↓                 ↓ ↓ ↑ ↓     ↓ ↓ ↑ ↓  

Parte 2 de 6
            F#m7(11)         G#7(9+/13-)
E|-x-x-x-x----------x--------7-7-7-7-x-----------------|
B|-x-x-x-x--0-0-0-0-x--------5-5-5-5-x-----------------|
G|-x-x-x-x--2-2-2-2-x--------5-5-5-5-x-----------------|
D|-x-x-x-x--2-2-2-2-x----------------x-----------------|
A|-x-x-x-x----------x----------------x-----------------|
E|-x-x-x-x--2-2-2-2-x-2-3-4--4-4-4-4-x-----------------|
   ↓ ↑ ↓ ↑   ↓ ↓ ↓ ↑ ↓         ↓ ↓ ↓ ↑ ↓

Parte 3 de 6
   C#m7(9/11)        Bm7(9)      E7(4/9)
E|-2-2-2-2-2-2-2-2---0-0-0-0-0---2-2-2-2-2-------------|
B|-4-4-4-4-4-4-4-4---2-2-2-2-2---3-3-3-3-3-------------|
G|-4-4-4-4-4-4-4-4---2-2-2-2-2---2-2-2-2-2-------------|
D|-2-2-2-2-2-2-2-2---0-0-0-0-0---2-2-2-2-2-------------|
A|-4-4-4-4-4-4-4-4---2-2-2-2-2-------------------------|
E|-----------------------------------------------------|
   ↓ ↓ ↓ ↓ ↓ ↓ ↓ ↓     ↓ ↓ ↓ ↓ ↑    ↓ ↓ ↓ ↓ ↑

Parte 4 de 6
   A7M(9)   G#7(9+/13-)        C#m7(9/11) F#7(13)  
E|-7-7-7-x--7-7-7-x--x-x-x-x---2-2-2-x----------x-----|
B|-5-5-5-x--5-5-5-x--x-x-x-x---4-4-4-x----4-4-4-x-----|
G|-6-6-6-x--5-5-5-x--x-x-x-x---4-4-4-x----3-3-3-x-----|
D|-6-6-6-x--------x--x-x-x-x---2-2-2-x----2-2-2-x-----|
A|-0-0-0-x--------x--x-x-x-x---4-4-4-x----------x-----|
E|-------x--4-4-4-x--x-x-x-x---------x----2-2-2-x-----|
   ↓ ↓ ↑ ↓   ↓ ↓ ↑ ↓  ↓ ↑  ↓ ↑   ↓ ↓ ↑ ↓     ↓ ↓ ↑ ↓  

Parte 5 de 6
            F#m7(11)         G#7(9+/13-)
E|-x-x-x-x----------x--------7-7-7-7-x-----------------|
B|-x-x-x-x--0-0-0-0-x--------5-5-5-5-x-----------------|
G|-x-x-x-x--2-2-2-2-x--------5-5-5-5-x-----------------|
D|-x-x-x-x--2-2-2-2-x----------------x-----------------|
A|-x-x-x-x----------x----------------x-----------------|
E|-x-x-x-x--2-2-2-2-x-2-3-4--4-4-4-4-x-----------------|
   ↓ ↑ ↓ ↑   ↓ ↓ ↓ ↑ ↓         ↓ ↓ ↓ ↑ ↓

Parte 6 de 6
   C#m7(9/11)         Bm7(9) E7(4/9)
E|-2-2-2-2-2-2-2-2-----------2-------------------------|
B|-4-4-4-4-4-4-4-4----2------3-------------------------|
G|-4-4-4-4-4-4-4-4----2------2-------------------------|
D|-2-2-2-2-2-2-2-2----0------2-------------------------|
A|-4-4-4-4-4-4-4-4----2--------------------------------|
E|---------------------------0-------------------------|

   F#m7   G#m7     A7M(9)  G#7(9+/13-)
Os anjos te louvam
                  C#m7(9/11)  F#7(13)
A igreja te adora
                 F#m7(11)  G#7(9+/13-)  
Cantando aleluia
              C#m7(9/11) Bm7(9)  
Santo é o Senhor
   E7(4/9)      A7M(9)  G#7(9+/13-)
Os anjos te louvam
                  C#m7(9/11)  F#7(13)
A igreja te adora
                 F#m7(11)  G#7(9+/13-)  
Cantando aleluia
              C#m7(9/11)  
Santo é o Senhor

[Segunda Parte]

[Tab - Segunda Parte]

Parte 1 de 5
   C#m7        
E|-----------------------------------------------------|
B|-2---------------------------------------------------|
G|-4---------------------------------------------------|
D|-2---------------------------------------------------|
A|-4---------------------------------------------------|
E|-----------------------------------------------------|

Parte 2 de 4
   C#m7(9)                 F#m7(11)    G#m7(11)
E|-------x-----------x-----------x---------x-----------|
B|-4-----x------4-4--x-----0-----x-----2-2-x-----------|
G|-4-----x------4-4--x-----2-----x-----4-4-x-----------|
D|-2-x---x-x----2-2--x-x---2-x---x-x---4-4-x-x---------|
A|-----x-x---x--4----x---x-------x---------x---x-------|
E|-------x-----------x-----2---x-x---x-4---x-----------| (2x)

Parte 3 de 4
   C#m7(9)                 F#m7(11)
E|-------x-----------x-----------x---------------------|
B|-4-----x------4-4--x-----0-----x---------------------|
G|-4-----x------4-4--x-----2-----x---------------------|
D|-2-x---x-x----2-2--x-x---2-x---x---------------------|
A|-----x-x---x--4----x---x-------x---------------------|
E|-------x-----------x-----2---x-x---------------------|

Parte 4 de 5
    C#m7         F#m7(11)    G#m7(11)
E|-----2-3-2-----------x---------x---------------------|
B|--2--4-5-4-----0-----x-----2-2-x---------------------|
G|--4------------2-----x-----4-4-x---------------------|
D|--2------------2-x---x-x---4-4-x-x-------------------|
A|--4------------------x---------x---x-----------------|
E|---------------2---x-x---x-4---x---------------------|

Parte 5 de 5
   C#m7(9)                 A7M  G#m7 F#m7 G#m7    
E|-------x-----------x---------------------------------|
B|-4-----x------4-4--x-----5---4----2----4-------------|
G|-4-----x------4-4--x-----6---4----2----4-------------|
D|-2-x---x-x----2-2--x-x---6---4----2----4-------------|
A|-----x-x---x--4----x---x-----------------------------|
E|-------x-----------x-----5---4----2----4-------------|

C#m7                     
     Maravilhoso, conselheiro

Deus forte

Pai da eternidade, príncipe da paz
C#m7(9)
        O Deus que vence 

Todas as batalhas
   F#m7(11)      G#m7(11)
O Deus que tudo faz
C#m7(9)
        A Terra inteira exalta
       F#m7(11)   G#m7(11)
A grandeza desse Deus
C#m7(9)
        Pois ele é sempre fiel
      F#m7(11)   
E te dá vitória

C#m7                     C#m7(9)
     Maravilhoso, conselheiro

Deus forte
         F#m7(11)               G#m7(11)
Pai da eternidade, príncipe da paz
C#m7(9)
       O Deus que vence 

Todas as batalhas
   F#m7(11)      G#m7(11)
O Deus que tudo faz
C#m7(9)
        A Terra inteira exalta
       F#m7(11)   G#m7(11)
A grandeza desse Deus
C#m7(9)
        Pois ele é sempre fiel
      A7M  G#m7   
E te dá vitória

[Refrão 2]

[Tab - Refrão 2 - Primeira Parte]

Parte 1 de 6
   A7M(9)   G#7(9+/13-)         C#m7(9/11) F#7(13)  
E|-7-7-7-x--7-7-----------------2-2-2-x----------x-----|
B|-5-5-5-x--5-5-----------------4-4-4-x----4-4-4-x-----|
G|-6-6-6-x--5-5-----------------4-4-4-x----3-3-3-x-----|
D|-6-6-6-x---------2-3-4--------2-2-2-x----2-2-2-x-----|
A|-0-0-0-x---------------4-3-2--4-4-4-x----------x-----|
E|-------x--4-4-----------------------x----2-2-2-x-----|
   ↓ ↓ ↑ ↓   ↓ ↓                 ↓ ↓ ↑ ↓     ↓ ↓ ↑ ↓  

Parte 2 de 6
            F#m7(11)         G#7(9+/13-)
E|-x-x-x-x----------x--------7-7-7-7-x-----------------|
B|-x-x-x-x--0-0-0-0-x--------5-5-5-5-x-----------------|
G|-x-x-x-x--2-2-2-2-x--------5-5-5-5-x-----------------|
D|-x-x-x-x--2-2-2-2-x----------------x-----------------|
A|-x-x-x-x----------x----------------x-----------------|
E|-x-x-x-x--2-2-2-2-x-2-3-4--4-4-4-4-x-----------------|
   ↓ ↑ ↓ ↑   ↓ ↓ ↓ ↑ ↓         ↓ ↓ ↓ ↑ ↓

Parte 3 de 6
   C#m7(9/11)        Bm7(9)      E7(4/9)
E|-2-2-2-2-2-2-2-2---0-0-0-0-0---2-2-2-2-2-------------|
B|-4-4-4-4-4-4-4-4---2-2-2-2-2---3-3-3-3-3-------------|
G|-4-4-4-4-4-4-4-4---2-2-2-2-2---2-2-2-2-2-------------|
D|-2-2-2-2-2-2-2-2---0-0-0-0-0---2-2-2-2-2-------------|
A|-4-4-4-4-4-4-4-4---2-2-2-2-2-------------------------|
E|-----------------------------------------------------|
   ↓ ↓ ↓ ↓ ↓ ↓ ↓ ↓     ↓ ↓ ↓ ↓ ↑    ↓ ↓ ↓ ↓ ↑

Parte 4 de 6
   A7M(9)   G#7(9+/13-)        C#m7(9/11) F#7(13)  
E|-7-7-7-x--7-7-7-x--x-x-x-x---2-2-2-x----------x-----|
B|-5-5-5-x--5-5-5-x--x-x-x-x---4-4-4-x----4-4-4-x-----|
G|-6-6-6-x--5-5-5-x--x-x-x-x---4-4-4-x----3-3-3-x-----|
D|-6-6-6-x--------x--x-x-x-x---2-2-2-x----2-2-2-x-----|
A|-0-0-0-x--------x--x-x-x-x---4-4-4-x----------x-----|
E|-------x--4-4-4-x--x-x-x-x---------x----2-2-2-x-----|
   ↓ ↓ ↑ ↓   ↓ ↓ ↑ ↓  ↓ ↑  ↓ ↑   ↓ ↓ ↑ ↓     ↓ ↓ ↑ ↓  

Parte 5 de 6
            F#m7(11)         G#7(9+/13-)
E|-x-x-x-x----------x--------7-7-7-7-x-----------------|
B|-x-x-x-x--0-0-0-0-x--------5-5-5-5-x-----------------|
G|-x-x-x-x--2-2-2-2-x--------5-5-5-5-x-----------------|
D|-x-x-x-x--2-2-2-2-x----------------x-----------------|
A|-x-x-x-x----------x----------------x-----------------|
E|-x-x-x-x--2-2-2-2-x-2-3-4--4-4-4-4-x-----------------|
   ↓ ↑ ↓ ↑   ↓ ↓ ↓ ↑ ↓         ↓ ↓ ↓ ↑ ↓

Parte 6 de 6
   C#m7(9/11)         Bm7(9) E7(4/9)
E|-2-2-2-2-2-2-2-2-----------2-------------------------|
B|-4-4-4-4-4-4-4-4----2------3-------------------------|
G|-4-4-4-4-4-4-4-4----2------2-------------------------|
D|-2-2-2-2-2-2-2-2----0------2-------------------------|
A|-4-4-4-4-4-4-4-4----2--------------------------------|
E|---------------------------0-------------------------|

   F#m7   G#m7     A7M(9)  G#7(9+/13-)
Os anjos te louvam
                  C#m7(9/11)  F#7(13)
A igreja te adora
                 F#m7(11)  G#7(9+/13-)  
Cantando aleluia
              C#m7(9/11) Bm7(9)  
Santo é o Senhor

   E7(4/9)      A7M(9)  G#7(9+/13-)
Os anjos te louvam
                  C#m7(9/11)  F#7(13)
A igreja te adora
                 F#m7(11)  G#7(9+/13-)  
Cantando aleluia
              C#m7(9/11)  Bm7(9)  
Santo é o Senhor

[Tab - Refrão 2 - Terceira Parte]

Parte 1 de 5
  A7M(9)  G#7(4/13) C#m7(9) F#7(13)
E|-7--------------2------------------------------------|
B|-5-------6--------2h4-----4--------------------------|
G|-6-------6--------4-------3--------------------------|
D|-6-------4--------2-------2--------------------------|
A|-0----------------4----------------------------------|
E|---------4----------------2--------------------------|

Parte 2 de 5
   F#m7(11)      G#7(9+/13-) C#m7(9/11)
E|-------x--------7-7-7-x----2-------------------------|
B|-0-0-0-x--------5-5-5-x----4-------------------------|
G|-2-2-2-x--------5-5-5-x----4-------------------------|
D|-2-2-2-x--------------x------------------------------|
A|-------x--------------x----4-------------------------|
E|-2-2-2-x--------4-4-4-x------------------------------|

Parte 3 de 4
 Bm7(9/11) E7(6) A7M(2) G7(4/13) G#7(4/13) C#m7(9) F#7(13)
E|-0----------------------------------------------------|
B|-2-------2-----0------5-------6--------4-------4------|
G|-2-------2-----1------5-------6--------4-------3------|
D|---------0-----2------3-------4--------2-------2------|
A|-2-------------0-----------------------4--------------|
E|---------0------------3-------4----------------2------|

Parte 4 de 5
   F#m7(11)       G#7(9+/13-)   
E|-------x--------7-7-7-x------------------------------|
B|-0-0-0-x--------5-5-5-x------------------------------|
G|-2-2-2-x--------5-5-5-x------------------------------|
D|-2-2-2-x--------------x------------------------------|
A|-------x--------------x------------------------------|
E|-2-2-2-x--------4-4-4-x------------------------------|

Parte 5 de 5
   C#m7(9/11)        Bm7(9)      E7(4/9)
E|-2-2-2-2-2-2-2-2---0-0-0-0-0---2-2-2-2-2-------------|
B|-4-4-4-4-4-4-4-4---2-2-2-2-2---3-3-3-3-3-------------|
G|-4-4-4-4-4-4-4-4---2-2-2-2-2---2-2-2-2-2-------------|
D|-2-2-2-2-2-2-2-2---0-0-0-0-0---2-2-2-2-2-------------|
A|-4-4-4-4-4-4-4-4---2-2-2-2-2-------------------------|
E|-----------------------------------------------------|
   ↓ ↓ ↓ ↓  ↓ ↓ ↓ ↓   ↓ ↓  ↓ ↓ ↑   ↓ ↓ ↓  ↓ ↑

   E7(4/9)      A7M(9)  G#7(4/13)
Os anjos te louvam
                  C#m7(9)  F#7(13)
A igreja te adora
                 F#m7(11)  G#7(9+/13-)  
Cantando aleluia
              C#m7(9/11)  Bm7(9/11) 
Santo é o Senhor

   E7(6)     A7M(2)  G7(4/13)  G#7(4/13)
Os anjos te louvam
              C#m7(9)  F#7(13)
A igreja te adora
                 F#m7(11)  G#7(9+/13-)  
Cantando aleluia
              C#m7(9/11)  Bm7(9/11)  
Santo é o Senhor

[Tab - Refrão 2 - Primeira Parte]

Parte 1 de 7
   A7M(9)   G#7(9+/13-)         C#m7(9/11) F#7(13)  
E|-7-7-7-x--7-7-7-x--------------2-2-2-x---------------|
B|-5-5-5-x--5-5-5-x--------------4-4-4-x---4-4---------|
G|-6-6-6-x--5-5-5-x-2h4/6\4p2----4-4-4-x---3-3---------|
D|-6-6-6-x--------x-----------4--2-2-2-x---2-2---------|
A|-0-0-0-x--------x--------------4-4-4-x---------------|
E|-------x--4-4-4-x--------------------x---2-2---------|
   ↓ ↓ ↑ ↓   ↓ ↓ ↑ ↓               ↓ ↓ ↑ ↓   ↓ ↓   

Parte 2 de 7
                    F#m7(11)         G#7(9+/13-)
E|--------------------------x--------7-7-7-7-x---------|
B|------------------0-0-0-0-x--------5-5-5-5-x---------|
G|-------------4-4--2-2-2-2-x--------5-5-5-5-x---------|
D|-----2-2-4-4------2-2-2-2-x----------------x---------|
A|-4-4----------------------x----------------x---------|
E|------------------2-2-2-2-x-2-3-4--4-4-4-4-x---------|
                    ↓ ↓ ↓ ↑ ↓         ↓ ↓ ↓  ↑ ↓

Parte 3 de 7
   Bb7(4/9)           B7(4/9)     E7(4/9)
E|--------------------------------7-7-7-7-7-------------|
B|-4-4-4-4-4-4-4-4----5-5-5-5-5---7-7-7-7-7-------------|
G|-5-5-5-5-5-5-5-5----6-6-6-6-6---7-7-7-7-7-------------|
D|-6-6-6-6-6-6-6-6----7-7-7-7-7---7-7-7-7-7-------------|
A|--------------------------------7-7-7-7-7-------------|
E|-6-6-6-6-6-6-6-6----7-7-7-7-7---0-0-0-0-0-------------|
   ↓ ↓ ↓  ↓ ↓ ↓ ↓ ↓     ↓ ↓ ↓ ↓ ↑    ↓ ↓ ↓ ↓ ↑ 

Parte 4 de 7
   C#m7(9/11)
E|-2-2-2-2-2-2-2-2-2-2-2-2-2-2-2-2-2---------------------|
B|-4-4-4-4-4-4-4-4-4-4-4-4-4-4-4-4-4---------------------|
G|-4-4-4-4-4-4-4-4-4-4-4-4-4-4-4-4-4---------------------|
D|-2-2-2-2-2-2-2-2-2-2-2-2-2-2-2-2-2---------------------|
A|-4-4-4-4-4-4-4-4-4-4-4-4-4-4-4-4-4---------------------|
E|-------------------------------------------------------|
   ↓ ↓ ↓  ↓ ↓ ↓ ↓ ↓  ↓ ↓ ↓ ↓ ↓ ↓  ↓ ↓ ↑

Parte 5 de 7
   F#m7(11)         G#7(9+/13-)   
E|---------x--------7-7-7-7-x------------------------------|
B|-0-0-0-0-x--------5-5-5-5-x------------------------------|
G|-2-2-2-2-x--------5-5-5-5-x------------------------------|
D|-2-2-2-2-x----------------x------------------------------|
A|---------x----------------x------------------------------|
E|-2-2-2-2-x-2-3-4--4-4-4-4-x------------------------------|
   ↓ ↓ ↓ ↑  ↓        ↓ ↓ ↓ ↑  ↓

Parte 6 de 7
   C#m7(9/11)
E|-2-2-2-2-2-2-2-2-2-2-2-2-2-2-2-------------------------|
B|-4-4-4-4-4-4-4-4-4-4-4-4-4-4-4-------------------------|
G|-4-4-4-4-4-4-4-4-4-4-4-4-4-4-4-------------------------|
D|-2-2-2-2-2-2-2-2-2-2-2-2-2-2-2-------------------------|
A|-4-4-4-4-4-4-4-4-4-4-4-4-4-4-4-------------------------|
E|-------------------------------------------------------|
   ↓ ↓ ↓  ↓ ↓ ↓ ↓ ↓ ↓  ↓ ↓ ↓ ↓ ↓ ↓   

Parte 7 de 7
   A7M  E7M/G# F#m7 E4(9)  G#7(5-)  C#m6(9/11)
E|----------------------------------2--------------------|
B|-5----4------2----0------3--------4--------------------|
G|-6----4------2----2------5--------3--------------------|
D|-6----2------2----4------4--------2--------------------|
A|-------------4--------------------4--------------------|
E|-5----4------2----0------4-----------------------------|

   E7(4/9)      A7M(9)  G#7(9+/13-)
Os anjos te louvam
                  C#m7(9/11)  F#7(13)
A igreja te adora
                 F#m7(11)  G#7(9+/13-)  
Cantando aleluia
              Bb7(4/9)  B7(4/9)  
Santo é o Senhor

   E7(4/9)      A7M(9)  G#7(9+/13-)
Os anjos te louvam
                  C#m7(9/11)  F#7(13)
A igreja te adora
                 F#m7(11)  G#7(9+/13-)  
Cantando aleluia
              C#m7(9/11)  
Santo é o Senhor

                 F#m7(11)  G#7(9+/13-)  
Cantando aleluia
              C#m7(9/11)  
Santo é o Senhor
             A7M  
Cantando aleluia

( E7M/G#  F#m7  E4(9) G#7(5-) )

              C#m6(9/11)  
Santo é o Senhor
00:00 / 00:00
Outros vídeos desta música
Repetir
Outros vídeos desta música
Composição de Eli Soares dos Reis
528.236 exibições
  • Simplificar cifra
    • ½ Tom
    • Am
    • Bbm
    • Bm
    • Cm
    • C#m
    • Dm
    • Ebm
    • Em
    • Fm
    • F#m
    • Gm
    • G#m
  • Adicionar à lista

    0 comentários

    Ver todos os comentários

    Entre para oCifra Club PRO

    Tenha acesso a benefícios exclusivos no App e no Site

    • Chega de anúncios

    • Prioridade de compra em lançamentos

    • Mais recursos no app do Afinador

    • Atendimento Prioritário

    • Descontos nos produtos Cifra Club

    • Ajude a produzir mais conteúdo

    00:00 / 00:00
    Capítulos
    • Apresentação
    • Tocando a Música
    • Dicas Iniciais
    • Acordes Introdução
    • Tocando Introdução
    • Ensinando Introdução - Convenção 1
    • Ensinando Introdução
    • Acordes Primeira Parte
    • Tocando Primeira Parte
    • Ensinando Primeira Parte
    • Tocando Segunda Parte
    • Ensinando Segunda Parte
    • Acordes Primeiro Refrão
    • Tocando Primeiro Refrão
    • Ensinando Primeiro Refrão
    • Tocando Segundo Refrão - Primeira Parte
    • Ensinando Segundo Refrão - Primeira Parte
    • Acordes Segundo Refrão - Segunda Parte
    • Tocando Segundo Refrão - Segunda Parte
    • Ensinando Segundo Refrão - Segunda Parte
    • Acordes Segundo Refrão - Terceira Parte
    • Tocando Segundo Refrão - Terceira Parte
    • Ensinando Segundo Refrão - Terceira Parte
    • Encerramento

    Cifra Club Pro

    Aproveite o Cifra Club com benefícios exclusivos e sem anúncios
    Cifra Club Pro
    Aproveite o Cifra Club com benefícios exclusivos e sem anúncios
    OK