Cifra Club

Aprenda

A Small Victory

Faith No More

Cifra: Principal (violão e guitarra)
Já pensou em usar uma coleção de roupas do Cifra Club? Responda as perguntas abaixo e nos ajude nessa missão! →
tom: A
 Gtr.1(synth arr. for gtr)

|--------------------|-----------|---------------------------|-------------|
|--------------------|-10--------|(10)--------------------10-|--7----5-----|
|--------------9--11-|-----------|-----------------9--11-----|-------------|
|----7--9--11--------|-----------|-------7--9--11------------|-------------|
|--------------------|-----------|---------------------------|-------------|
|--------------------|-----------|---------------------------|-------------|
|                                                                          |
|Gtr.2                                                                     |
|--------------------|-----------|---------------------------|-------------|
|--------------------|--7--------|(7)-------------2--5--5/7--|--5----2-----|
|--------------------|--6--------|(6)-------2--4--2--4--4/6--|--4----2-----|
|--------------------|-----------|----------2--4-------------|-------------|
|--------------------|-----------|---------------------------|-------------|
|--------------------|-----------|---------------------------|-------------|

          A hierarchy_                                     spread_ out on the
|-------------------|------------------------------|-------------------------|
|(5)-----------5--7-|-10---------------------------|(10)------------------10-|
|-----2--4--6-------|------------------------------|-----------------9-11----|
|-------------------|------------------------------|----------7-9-11---------|
|-------------------|------------------------------|-------------------------|
|-------------------|------------------------------|-------------------------|
|                                                                        
|
|                    Rhy fig.1                                  end Rhy fig.1|
|-------------------|------------------------------|-------------------------|
|(2)-----------5--7-|------------------------------|-------------------------|
|(2)--2--4--6--2--4-|------------------------------|-------------------------|
|-----2--2--4-------|------------------------------|-------------------------|
|-------------------|7-7-7-7-7---7-7-7-7-7---7-7-7-|7-7-7-7-7---7-7-7-7-7---4|
|-------------------|5-5-5-5-5---5-5-5-5-5---5-5-5-|5-5-5-5-5---5-5-5-5-5---2|

  Gtr.1(with Rhy fig.1  2 1/2 times)
  night    stand_        The spirit  of team_      salvation is  another chance
|---------------|------------------|---------|--------------------|----------|
|---------------|------------------|-10------|(10)-------------10-|----------|
|-11-----9------|(9)----------9-11-|---------|------------9-11----|-11-------|
|---------------|------7-9-11------|---------|-----7-9-11---------|----------|
|---------------|------------------|---------|--------------------|----------|
|---------------|------------------|---------|--------------------|----------|

                          A sore loser            yelling  with_
|-----------------------|-----------9/12-|---------------------|
|-----------------------|12--------------|-12------------------|
|(9)--------------------|----------------|---------------------|
|-----------------------|----------------|---------------------|
|-----------------------|----------------|---------------------|
|-----------------------|----------------|---------------------|
|                                                               |
|Gtr.2                                                          |
|-----------------------|----------------|---------------------|
|---------------2-5-5/7-|-5--------------|(5)----------2-5-5/7-|
|-----------2-4-2-4-4/6-|-4--------------|(4)------2-4-2-4-4/6-|
|-----------2-4---------|----------------|---------2-4---------|
|7-7-7-7-7--------------|----------------|---------------------|
|5-5-5-5-5--------------|----------------|---------------------|

     my mouth shut_                Huh, huh.....
|----------------|---------------|-----------|------------------|
|-10-------------|---------------|10---------|(10)--------------|
|----------------|-11--------9---|-----------|------------------|
|----------------|---------------|-----------|------------------|
|----------------|---------------|-----------|------------------|
|----------------|---------------|-----------|------------------|
|                                                                |
|                                                                |
|----------------|---------------|-----------|------------------|
|--5----3----5---|-------3-------|-7---------|(7)-------2-5-5/7-|
|--4----2----4-4-|(4)----2--2----|-6---------|(6)---2-4-2-4-4/5-|
|--------------4-|(4)-------2----|-----------|------2-4---------|
|----------------|---------------|-----------|------------------|
|----------------|---------------|-----------|------------------|

      ....huh, huh, huh (2)The cracking portrait_
|----------------|-----------------------------|
|10--------------|(10)-------------------------|
|----------------|---------------------9--11---|
|----------------|-----------7--9--11----------|
|----------------|-----------------------------|
|----------------|-----------------------------|
|                                               |
|                                               |
|----------------|-----------------------------|
|-5-----2--------|(2)------------------5---7---|
|-4-----2--------|(2)--------2--4---6--2---4---|
|----------------|-----------2--2---4----------|
|----------------|-----------------------------|
|----------------|-----------------------------|

  Chorus(I think it's a chorus - the "It shouldn't bother me" bit):
|------------------------------|------------------------|
|------------------------------|------------------------|
|9---9-9-9---9-7-9---9-9-9-7-7-|9---9-9-9---9-7-9--7--9-|
|7---7-7-7---7-7-7---7-7-7-7-7-|7---7-7-7---7-7-7--7--7-|
|0---0-0-0---0-0-0---0-0-0-0-0-|0---0-0-0---0-0-0--0--0-|
|-------------------------------------------------------|

  Solo:                        Play 3 times |
|------------------------------------------|
|------------------------------------------|
|-----------------------------12---(12)b13-|
|----------12-------14-----12--------------|
|-------11----11---------------------------|
|12--12----------12-----12-----------------|
  
                                            |                    Play 4 times |
|------------------------------------------|---------------------------------|
|------------------------------------------|---------------------------13b14-|
|------------------------------12---(12)b13|---------12-------14-------------|
|---------12-------------------------------|------11----11----------11-------|
|------11----11----------------------------|12-12----------12----12----------|
|12-12----------12-12-12-12-12-------------|---------------------------------|

  Bridge:
|----------------------------------|------------------------------|
|----------------------------------|------------------------------|
|----------------------------------|------------------------------|
|9/10\9-------9/10\9-------9-------|9/10\9-------9/10\9-------9---|
|7/-8\7-------7/-8\7-------7-------|7/-8\7-------7/-8\7-------7---|
|-------0-0-0--------0-0-0-----0-0-|-------0-0-0--------0-0-0-----|
Composição de Faith No More
Colaboração e revisão:
  • Bruno Cavalcante
13.280 exibições
    • ½ Tom
    • A
    • Bb
    • B
    • C
    • Db
    • D
    • Eb
    • E
    • F
    • F#
    • G
    • Ab
  • Adicionar à lista

    0 comentários

    Ver todos os comentários

    Conseguiu tocar?

    0 Tocaram 0 Ainda não

    Grave um vídeo tocando A Small Victory e nos envie!

    00:00 / 00:00
    outros vídeos desta música
    repetir qualidade Automático
    Outros vídeos desta música
    00:00 / 00:00
    Automático

    Cifra Club Pro

    Aproveite o Cifra Club com benefícios exclusivos e sem anúncios
    Cifra Club Pro
    Aproveite o Cifra Club com benefícios exclusivos e sem anúncios
    OK