Cifra Club

Faz Chover

Fernandinho

Tab de baixo: Principal
exibições 46.792
[Introdução]

Parte 1 
G|----------------------------------------------|
D|----------------------------------------------|
A|-2-2------------------------------------------|
E|-----3-3-----5-5--3---------------------------|
B|---------3-3----------------------------------|


[Primeira parte]

Assim como a corça...

Parte 1 
G|----------------------------------------------|
D|----------------------------------------------|
A|-------------------------4-5------------------|
E|---------------5-5-0-5-7-----0--7-7-7-7--5----|
B|-3-3--3-3--3-3--------------------------------|

G|----------------------------------------------|
D|----------------------------------------------|
A|-5/12-12-12--12-12-12--12-12-12---------------|
E|----------------------------------------------|
B|----------------------------------------------|


[Refrão]

Faz chover Senhor Jesus...

Parte 1 de 4
G|----------------------------------------------|
D|----------------------------------------------|
A|-2--2-2--5--5-5-5-------5-4----2--2-2--5--5-5-|
E|------------------5-5-5-----5-----------------|
B|----------------------------------------------|

G|----------------------------------------------|
D|----------------------------------------------|
A|-5----------5-4----2--2-2--5--5-5-5-----------|
E|---5-5-5--5-----5-------------------5--5-5----|
B|----------------------------------------------|

G|----------------------------------------------|
D|----------------------------5/7-7-7-7--7-7-7--|
A|-5-5-4-4---2--2-2--5--5-5-5-------------------|
E|---------5------------------------------------|
B|----------------------------------------------|

G|----------------------------------------------|
D|-7-7-7----------------------------------------|
A|----------------------------------------------|
E|----------------------------------------------|
B|----------------------------------------------|

Parte 2 de 4
G|----------------------------------------------|
D|-7/9-9-9-9/12--12-12-12----------12-12-11-11--|
A|------------------------12-12-12--------------|
E|----------------------------------------------|
B|----------------------------------------------|

G|----------------------------------------------|
D|----9--9-9-9--9/12--12-12-12\-----------------|
A|-12-------------------------------------------|
E|------------------------------5--5-5--5--5-5-5|
B|----------------------------------------------|

G|----------------------------------------------|
D|----------------------------------------------|
A|----------------------------------------------|
E|-5-5-5----------------------------------------|
B|----------------------------------------------|

Parte 3 de 4
G|----------------------------------------------|
D|----------------------------------------------|
A|-2--2-2--5--5-5-5--------5-5-4-4---2--2-2--5--|
E|------------------5--5-5---------5------------|
B|----------------------------------------------|

G|----------------------------------------------|
D|---------------5/7--7-7-----------------------|
A|-5-5-5------------------7\--------------------|
E|-------5--5-5---------------------------------|
B|----------------------------------------------|

Parte 4 de 4
G|----------------------------------------------|
D|----------------------------------------------|
A|-2-----0-0--2-----0-0-------------------------|
E|---3-3--------3-3-----------------------------|
B|----------------------------------------------|


[Solo de Guitarra]

Parte 1 
G|----------------------------------------------|
D|-------------5/7--7-7-7--7-7-7--7\------------|
A|-2----------------------------------2--2-2----|
E|---3--5-5-5-----------------------------------|
B|----------------------------------------------|

G|----------------------------------------------|
D|----------------------------------------------|
A|-------------------------------------0-0-0-0--|
E|-3--3-3-3--5--5-5-5--5-5-5--3-3-3-3-----------|
B|----------------------------------------------|

G|----------------------------------------------|
D|----------------------------------------------|
A|-2-2-2-2--2-2-2-2---2/14-14-14-14--14-14-14-14|
E|----------------------------------------------|
B|----------------------------------------------|


[Refrão 02]

Faz chover Senhor Jesus...

parte 1 de 5
G|----------------------------------------------|
D|----------------------------------------------|
A|-4--4-4--4/7-7-7-7---------------7-6----------|
E|-------------------7--7-7--7-7-7--------------|
B|----------------------------------------------|

G|----------------------------------------------|
D|-------------------7/9--9-9-9-9--9-9-9--------|
A|-4--4-4--4/7-7-7-7----------------------------|
E|----------------------------------------------|
B|----------------------------------------------|

G|----------------------------------------------|
D|-9h11--11-11-11-11-7\-------------------------|
A|----------------------------------------------|
E|----------------------------------------------|
B|----------------------------------------------|

Parte 2 de 5
G|---------------------------9-9-8-8------------|
D|-------------------7/9-9-9---------9----------|
A|-4--4-4---4/7-7-7-7---------------------------|
E|----------------------------------------------|
B|----------------------------------------------|

G|-----------9--9-9-9--8-8-9-11-----------------|
D|-11--11-11--------------------9--9------------|
A|-----------------------------------9\---------|
E|--------------------------------------7\------|
B|----------------------------------------------|

Parte 3 de 5
G|----------------------------------------------|
D|----------------------------------------------|
A|-4--4-4--4/7-7-7-7--------7-7-6-6-------------|
E|-------------------7--7-7---------7-----------|
B|----------------------------------------------|

G|----------------------------------------------|
D|-------------------7/9-9-9-9--9-9-9-9---------|
A|-4--4-4--4/7-7-7-7----------------------------|
E|----------------------------------------------|
B|----------------------------------------------|

G|----------------------------------------------|
D|-9-9-9-9--9-9-9-9-----------------------------|
A|----------------------------------------------|
E|----------------------------------------------|
B|----------------------------------------------|

Parte 4 de 5
G|----------------------------------------------|
D|----------------------------------------------|
A|-4--4-4--4/7-7-7-7--------7-7-6-6-------------|
E|-------------------7--7-7---------7-----------|
B|----------------------------------------------|

G|----------------------------------------------|
D|----------------------------------------------|
A|-4--4-4---4/7-7-7-7-9-------------------------|
E|----------------------7--7-7--7--7-7-7\-------|
B|----------------------------------------------|

G|----------------------------------------------|
D|-------------------------11h13-13-13-13-------|
A|-4--4-4-------------9h11----------------------|
E|--------5--5-5-5--7---------------------------|
B|----------------------------------------------|

G|----------------------------------------------|
D|-7h9-9-9-9------------------------------------|
A|----------------------------------------------|
E|----------------------------------------------|
B|----------------------------------------------|

Parte 5 de 5
G|----------------------------------------------|
D|----------------------------------------------|
A|-4--4-4---------------------------------------|
E|--------5--5-5-5--7-7-7-7\--------------------|
B|-----------------------------2----------------|
Colaboração e revisão:
  • Reginaldo Costa
  • Fabio Rosa
  • João dib

0 comentários

mostrar mais comentários

Conseguiu tocar?

11tocaram0ainda não

Grave um vídeo tocando Faz Chover e mande pra gente!

00:00 / 00:00
outros vídeos desta música
repetirqualidadeAutomático
Outro vídeos desta música
    00:00 / 00:00
    Capítulos
    • Tocando a música
    • Apresentação / Equipamentos
    • TAB - Introdução
    • TAB - Primeira parte
    • TAB - Refrão - Parte 1 de 4
    • TAB - Refrão - Parte 2 de 4
    • TAB - Refrão - Parte 3 de 4
    • TAB - Refrão - Parte 4 de 4
    • TAB - Solo de guitarra
    • TAB - Refrão 2 - Parte 1 de 5
    • TAB - Refrão 2 - Parte 2 de 5
    • TAB - Refrão 2 - Parte 3 de 5
    • TAB - Refrão 2 - Parte 4 de 5
    • TAB - Refrão 2 - Parte 5 de 5
    • Encerramento
    OK