Cifra Club

Faz Chover

Fernandinho

Tab de baixo: Principal
exibições 44.129
Versos:                          |1ª vez |        2ª vez
G||------------------------------|-------|----------------------|
D||------------------------------|-------|----------------------|
A||------------------------------|-------|-5xx5xx5xx5-----------|
E||------5-7--3-2--0-5--3-5--2-3-|----5-5|-----------5xx5xx5xx5-|
B||-3-3--------------------------|3-3----|----------------------|
   
Refrão: 
G||----------------------------------| 
D||-------------77------------77---7-| 
A||----------------------------------| (2x)
E||---2-3-x--5-------2-3--5-5----5---|
B||-0------3-------0-----------------|
Colaboração e revisão:
  • Fabio Rosa
  • João dib

0 comentários

    mostrar mais comentários

    Conseguiu tocar?

    10tocaram0ainda não

    Grave um vídeo tocando Faz Chover e mande pra gente!

    00:00 / 00:00
    outros vídeos desta música
    repetirqualidadeautomática
    Outro vídeos desta música
      00:00 / 00:00
      automática
      OK