Cifra Club

Que Raiva Que Dá / Da Cor do Pecado (Pot-Pourri)

Fernando e Sorocaba

Cifra: Principal (violão e guitarra)
tom: A
Intro:

E|-------------------------------------------------------------|
B|-2-2-2-3/5-3-2-2-2-3/5-3-2-2-2--5-5--2-2-2-2--5-5-5-5--2-2-2-|
G|-2-2-2-2/4-2-2-2-2-2/4-2-2-2-2--4-4--2-2-2-2--4-4-4-4--2-2-2-|
D|-2-2-2-0---0-2-2-2-0---0-2-2-2--2-2--2-2-2-2--2-2-2-2--2-2-2-|
A|-0-0-0-------0-0-0-------0-0-0-------0-0-0-0-----------0-0-0-|
E|-------------------------------------------------------------|

Pagode: E  A E5 (4x)

E|---------------|
B|-2-2-2-3-3-2-2-|
G|-2-2-2-2-2-2-2-|
D|-2-2-2-2-2-2-2-|
A|-0-0-0-0-0-0-0-|
E|---------------|

                                        A
E|-5/9--9--9--9--7-5---12---10---9---7-5--|
B|-7/10-10-10-10-9-7-------------------5--|
G|-----------------------11---9----7---6--|
D|-------------------------------------7--|
A|----------------------------------------|
E|-------------------0--------------------|


A                  E
  Ela me tocou de casa

Diz que não é pra voltar
A
Que raiva que dá
              E
Que raiva que dá
      D     E        A
To voltando lá pro bar

                     E
Vai ficar com seus amigos

Vai morar em outro lugar
F#m
Que raiva que dá
              E
Que raiva que dá
      D     E      A
To voltando lá pro bar

(Base do solo 2x): A E D A E A

E|-7/9-9-9-9-9-9-12-12-12-10-10-10-7-9-|-----------------------------|
B|-------------------------------------|-2-2-2-2-2-2-5-5-5-3-3-3-1-2-|
G|-7/9-9-9-9-9-9-13-13-13-11-11-11-8-9-|-----------------------------|
D|-------------------------------------|-2-2-2-2-2-2-5-5-5-3-3-3-1-2-|
A|-------------------------------------|-----------------------------|
E|-------------------------------------|-----------------------------|

E|-7/9-9-9-9-9-9-12-12-12-10-10-10-7-9-|-------------12-10-9-7-5-|
B|-------------------------------------|-2-2-2-2-2-2-------------|
G|-7/9-9-9-9-9-9-13-13-13-11-11-11-8-9-|-------------13-11-9-7-6-|
D|-------------------------------------|-2-2-2-2-2-2-------------|
A|-------------------------------------|-------------------------|
E|-------------------------------------|-------------------------|


A                E
Ela me tocou de casa

Diz que não é pra voltar
A
Que raiva que dá
               E
Que raiva que dá
       D     E      A
To voltando lá pro bar

                     E
Vai ficar com seus amigos

Vai morar em outro lugar
F#m
Que raiva que dá
               E
Que raiva que dá
       D     E      A
To voltando lá pro bar

(Riff):

E|-10-10-12-9-7-5----|
B|-------------------|
G|-11-11-13-9-7-6----|
D|-------------------|
A|-------------------|
E|-------------------|


A
Ela pensa que eu só sei
                    E
encher a cara no boteco

E o boteco tem mulher
                  A
E o boteco tem xaveco
                    B
No boteco eu jogo truco
                   D
E divirto com os amigos
                      A
Mas quando volto pra casa
                   E
Quietinho de madrugada
        D    E        A
Dou de cara com o inimigo

A                E
Ela me tocou de casa

Diz que não é pra voltar
A
Que raiva que dá
               E
Que raiva que dá
       D     E      A
To voltando lá pro bar

                     E
Vai ficar com seus amigos

Vai morar em outro lugar
F#m
Que raiva que dá
               E
Que raiva que dá
       D     E      A
To voltando lá pro bar

(Riff)



 ( A )

(refrão 2x):
         A
Corpo moreno, sarado, gostoso,
             E
Da cor do pecado
                             F#m
Me deixa maluco, me deixa pirado,
         D
Ela é demais, demais

(base solo 2x): A   E   F#m  D

(solo 2x):

(1ª parte):

E|--7/9-7-5-5-7/9-5---7/9-7-5--5/7-|
B|-----------------------------7/9-|
G|--7/9-7-6-6-7/9-6---7/9-7-6------|
D|---------------------------------|
A|---------------------------------|
E|---------------------------------|


(2ª parte):

E|--7/9--7-5-5h7p5--4/5--4h5p4--2h4p2-|
B|--9/10-9-7-7------6/7--5------3-----|
G|------------------------------------| (2x)
D|------------------------------------|
A|------------------------------------|
E|------------------------------------|

E|----------|
B|----------|
G|-----2-4--|
D|-2h4------|
A|----------|
E|----------|

          A                 E
Falei pra ela, que o lugar dela é do meu lado
            F#m              D
Mostrei pra ela, que sou um homem apaixonado
            A             E
Vem ser só minha, beleza sobrenatural
        F#m           D
Você é linda, rainha do meu carnaval

(pré-refrão):

   A              E
Ai Ai, joga seu charme e vai embora
   F#m        D
Ai Ai, ela me usa e me ignora
   A              E
Ai Ai, vivo implorando seu amor
   F#m            D                      A
Ai Ai, eu sou só teu, vou contigo aonde for

(refrão 2x)

(solo)

          A                  E
Falei pra ela, que o que eu sinto é infinito
            F#m              D
Mostrei pra ela, que do meu lado é o paraíso
            A             E
Vem e incendeia esse meu peito com paixão
          F#m             D
Me deixa louco vai requebrando até o chão

(pré-refrão)

(refrão 4x)
00:00 / 00:00
Outros vídeos desta música
Repetir
Outros vídeos desta música
Composição de Sorocaba
Colaboração e revisão:
  • Felipe Sales
4.650 exibições
    • ½ Tom
    • A
    • Bb
    • B
    • C
    • Db
    • D
    • Eb
    • E
    • F
    • F#
    • G
    • Ab
  • Adicionar à lista

    0 comentários

    Ver todos os comentários

    Conseguiu tocar?

    1 Tocaram 0 Ainda não

    Grave um vídeo tocando Que Raiva Que Dá / Da Cor do Pecado (Pot-Pourri) e nos envie!

    Entre para oCifra Club PRO

    Tenha acesso a benefícios exclusivos no App e no Site

    • Chega de anúncios

    • Prioridade de compra em lançamentos

    • Mais recursos no app do Afinador

    • Atendimento Prioritário

    • Descontos nos produtos Cifra Club

    • Ajude a produzir mais conteúdo

    00:00 / 00:00

    Cifra Club Pro

    Aproveite o Cifra Club com benefícios exclusivos e sem anúncios
    Cifra Club Pro
    Aproveite o Cifra Club com benefícios exclusivos e sem anúncios
    OK