Cifra Club

Aprenda

Here In Your Bedroom

Goldfinger

Cifra: Principal (violão e guitarra)
Já pensou em usar uma coleção de roupas do Cifra Club? Responda as perguntas abaixo e nos ajude nessa missão! →
tom: B
Goldfinger - Here in Your Bedroom.  

INTRO/VERSE (This sounds really good if you mute it)

E---------------------------------------------------------------
B---------------------------------------------------------------
G---------------------------------------------------------------
D----------6-6-7-9-------------------------4-4-5-7--------------
A--7-7-7-7----------------6-6-7-6--5-5-5-5---------------4-4-5-4
E-------------------7-7-7--------------------------5-5-5--------

VERSE PART 1 (SKA upstrokes)

   E    B    D    A

E--7----7----5----5
B--9----7----7----5
G--9----8----7----6
D-------9---------7
A------------------
E------------------

VERSE PART 2 (SKA upstrokes)

   C    G    G#   F

E--3----3----1----1
B--5----3----3----1
G--5----4----3----2
D-------5---------3
A------------------
E------------------

VERSE PART 3 (MUTED)

   Em   F    G    Am

E-(0)--(1)--(3)--(5)
B-(0)--(1)--(3)--(5)
G-(0)--(2)--(4)--(5)
D--2----3----5----7
A--2----3----5----7
E--0----1----3----5

CHORUS

   C    G    G#   F

E--3----3----1----1
B--5----3----3----1
G--5----4----3----2
D--5----5----3----3
A--3----5----1----3
E-------3---------1

VERSE PART 1

VERSE PART 2

VERSE PART 3

CHORUS

SOLO 1 (2x) (listen to the song for the timing of the last F chord)

E--------------------------------------
B--------------------------------------
G--------------------------------------
D------2h3p2-------0-----0h1p0--3-3-3-3
A--3-3---------2-3---1-1--------3-3-3-3
E------------3------------------1-1-1-1

VERSE PART 1

VERSE PART 2

VERSE PART 3

CHORUS 2x

SOLO 2/OUTRO

E--------------------------------------
B--------------------------------------
G--------------------------------------
D------2h3p2-------0-----0h1p0---------
A--3-3---------2-3---1-1----------0-1-3
E------------3------------------1------

E------0h1p0-----------------------------------------3-3
B--1-1---------0-1-3-----3h4p3-------1----1-3-3-3-5--5-5
G------------0-------3-3---------2-3-----------------5-5
D------------------------------3---------------------5-5
A----------------------------------------------------3-3
E-------------------------------------------------------
Composição de John Feldmann
Colaboração e revisão:
  • Tauan Vivekananda
5.145 exibições
    • ½ Tom
    • A
    • Bb
    • B
    • C
    • Db
    • D
    • Eb
    • E
    • F
    • F#
    • G
    • Ab
  • Adicionar à lista

    0 comentários

    Ver todos os comentários

    Conseguiu tocar?

    0 Tocaram 0 Ainda não

    Grave um vídeo tocando Here In Your Bedroom e nos envie!

    00:00 / 00:00
    Outros vídeos desta música
    Repetir Qualidade Automático
    Outros vídeos desta música
    00:00 / 00:00
    Automático

    Cifra Club Pro

    Aproveite o Cifra Club com benefícios exclusivos e sem anúncios
    Cifra Club Pro
    Aproveite o Cifra Club com benefícios exclusivos e sem anúncios
    OK