Cifra Club

Aprenda

Lifestyles of the Rich and Famous

Good Charlotte

Cifra: Principal (violão e guitarra)
tom: F#
Verso

E|------------------------------------
B|------------------------------------
G|----6-6----8-8-----------6-6--------   2x
D|----6-6----6-6----4-4----6-6--------
A|----4-4----6-6----4-4----4-4--------
E|------------------2-2---------------

Pré Refrão

E|-------------------------------------------
B|-------------------------------------------
G|----33333333------------66666666-----------
D|----33333333--44444444--66666666--66666666-
A|----11111111--44444444--44444444--66666666-
E|--------------22222222------------44444444-

E|---------------------------------------------------------
B|---------------------------------------------------------
G|----33333333------------66666666-------------------------
D|----33333333--44444444--66666666--66666666--44444444-4~~-
A|----11111111--44444444--44444444--66666666--44444444-4~~-
E|--------------22222222------------44444444--22222222-2~~-

Refrão

E|--------------------------------------------
B|--------------------------------------------
G|---66666666--88888888------------66666666---   Repetir 2x
D|---66666666--88888888--44444444--66666666---
A|---44444444--66666666--44444444--44444444---
E|-----------------------22222222-------------

Refrão Mais Pesado

E|--------------------------------------------
B|--------------------------------------------
G|---66666666--88888888------------66666666---   Repetir 2x
D|---66666666--88888888--44444444--66666666---
A|---44444444--66666666--44444444--44444444---
E|-----------------------22222222-------------

Parte Final

E|------------------------------------------
B|------------------------------------------
G|------------66666666----------------------   3x
D|--44444444--66666666----------------------
A|--44444444--44444444----------------------
E|--22222222--------------------------------

Lifestyles of the Rich and Famous

I'll see it on TV; Or read it in the magazines
Celebrities who want sympathy
All they do is piss and moan, inside the Rolling Stone
Talking about how hard life can be.
I'd like to see them spend a week; living life out on thestreet
I don't think they would survive
If they could spend a day or two; walking in someone else'sshoes
I think they'd stumble and they'd fall; They would fall
Lifestyles of the rich and the famous; They're alwayscomplainin'
Always complainin'
If money is such a problem; well they got mansions
Think we should rob them?

Did you know if you were famous you could kill your wife
and there's no such thing as 25 to life
As long as you've got the cash to pay for Cochran.
Did you know if you were caught; and you were smokin' crack
McDonald's wouldn't even wanna take you back
You could always run for mayor of D.C.

I'd like to see them spend a week; living life out on thestreet
I don't think they would survive
If they could spend a day or two; walking in someone else'sshoes
I think they'd stumble and they'd fall; They would fall

Lifestyles of the rich and the famous; They're alwayscomplainin'
Always complainin'
If money is such a problem; well they got mansions
Think we should rob them?
Well they got mansions
think we should rob them

Lifestyles of the rich and famous
they're always complainin'
always complainin
If money is such a problem
you got so many problems
think I could solve them?
Lifestyles of the rich and famous
We'll take your clothes, cash, cars, and homes
Just stop complainin'

Lifestyles of the rich and famous
Lifestyles of the rich and famous
Lifestyles of the rich and famous
Composição de Benji Madden / Good Charlotte / Joel Madden
23.989 exibições
    • ½ Tom
    • A
    • Bb
    • B
    • C
    • Db
    • D
    • Eb
    • E
    • F
    • F#
    • G
    • Ab
  • Adicionar à lista

    0 comentários

    Ver todos os comentários

    Conseguiu tocar?

    0 Tocaram 0 Ainda não

    Grave um vídeo tocando Lifestyles of the Rich and Famous e nos envie!

    00:00 / 00:00
    Outros vídeos desta música
    Repetir Qualidade Automático
    Outros vídeos desta música
    00:00 / 00:00
    Automático

    Cifra Club Pro

    Aproveite o Cifra Club com benefícios exclusivos e sem anúncios
    Cifra Club Pro
    Aproveite o Cifra Club com benefícios exclusivos e sem anúncios
    OK