Cifra Club

Aprenda

Com Ou Sem Mim

Gustavo Mioto

Cifra: Completa (violão e guitarra)
tom: Bbm (forma dos acordes no tom de Gm) Capotraste na 3ª casa
[Intro]

Em  C9  G  D5

[Primeira Parte]

Em                    C
   Se você não me disser a verdade
G                     D5
  Não tem como eu ajudar, minha metade
C9                        D5
   Se tem outro em meu lugar
                  Bm7
Se você quer colocar
                    Em
Te deixo livre pra viver
C9                     D5
   Não prometo te esperar
                    Bm7
Coração vai cicatrizar
                             Em
E uma hora eu sei que vou te esquecer

                        C9
Se era medo de me machucar
                 D5
Já tem o meu perdão
                G
Tá esperando o que

[Primeira Parte]

Parte 1 de 4

   Em       C        G        D5
E|------------------------------------------|
B|-0-0-0-0--1-1-1-1--0-0-0-0--3-------------|
G|-0-0-0-0--0-0-0-0--0-0-0-0--2--------0----|
D|----------------------------0------0------|
A|----------3-3-3-3--------------0h2--------|
E|-0-0-0-0-----------3-3-3-3----------------|


Parte 2 de 4

   C9       D5       Bm7      Em
E|------------------------------------------|
B|---3-3-3--3-3-3-3--3-3-3-3--0-------------|
G|---0-0-0--2-2-2-2--2-2-2-2--0-------------|
D|----------0-0-0-0-------------------------|
A|-3-3-3-3-----------2-2-2-2----------------|
E|----------------------------0-------------|

Parte 3 de 4

             C9     D5       Bm7      Em
E|------------------------------------------|
B|-----------3-3-3--3-3-3-3--3-3-3-3--0-----|
G|-2/4\2p0---0-0-0--2-2-2-2--2-2-2-2--0-----|
D|---------0--------0-0-0-0-----------2-----|
A|---------3-3-3-3-----------2-2-2-2--2-----|
E|------------------------------------0-----|

Parte 4 de 4

   C9  D5  G
E|------------------------------------------|
B|-3---3---0-0-0-0-0------------------------|
G|-0---2---0-0-0-0-0------------------------|
D|-2---0---0-0-0-0-0------------------------|
A|-3----------------------------------------|
E|---------3-3-3-3-3------------------------|
           ↓ ↓ ↓ ↓ ↓
  
[Refrão]

Em7                 C9        G
    Só quero que você seja feliz
    D5      Em7
Com ou sem mim
                 C9            G
E quando der saudade e for dormir
    D5      Em7
Com ou sem mim

               C9             G
E quando perceber que eu não tô
                 D5           Em7
E que não vai achar um novo amor
                 C9          G
Vai ter que aceitar que é assim
    D5      Em7  C9  G
Com ou sem mim
    D5      Em7  C9  G  D5  Em7
Com ou sem mim

[Primeira Parte]

C9                        D5
   Se tem outro em meu lugar
                     Bm7
Ou se você quer colocar
                 Em7
Te deixo livre, livre pra viver
C9                     D5
   Não prometo te esperar
                    Bm7
Coração vai cicatrizar
                             Em7
E uma hora eu sei que vou te esquecer

        D5              C9  D5 
Se era medo de me machucar
                   G
Tá esperando o que

[Refrão Final]

Em7                 C9        G
    Só quero que você seja feliz
    D5      Em7
Com ou sem mim
                 C9            G
E quando der saudade e for dormir
    D5      Em7
Com ou sem mim
               C9             G
E quando perceber que eu não tô
                 D5           Em7
E que não vai achar um novo amor
                 C9          G
Vai ter que aceitar que é assim
    D5      Em7  C9  G
Com ou sem mim
    D5      Em7  C9  G
Com ou sem mim
    D5      Em7
Com ou sem mim
Composição de Edu Valim / Gustavo Mioto / Renan Valim
Colaboração e revisão:
  • Leandro Sandim
5.539 exibições
  • Simplificar cifra
    • ½ Tom
    • Am
    • Bbm
    • Bm
    • Cm
    • C#m
    • Dm
    • Ebm
    • Em
    • Fm
    • F#m
    • Gm
    • G#m
  • Adicionar à lista

    0 comentários

    Ver todos os comentários

    Conseguiu tocar?

    3 Tocaram 0 Ainda não

    Grave um vídeo tocando Com Ou Sem Mim e nos envie!

    00:00 / 00:00
    outros vídeos desta música
    repetir qualidade Automático
    Outros vídeos desta música
    00:00 / 00:00
    Automático
    Capítulos
    • Tocando a Música
    • Apresentação / Equipamentos
    • Acordes
    • Ensinando Primeira Parte
    • Tocando Refrão
    • Ensinando Refrão
    • Ensinando Ritmo da Primeira Parte
    • Encerramento

    Cifra Club Pro

    Aproveite o Cifra Club com benefícios exclusivos e sem anúncios
    Cifra Club Pro
    Aproveite o Cifra Club com benefícios exclusivos e sem anúncios
    OK