Cifra Club

Aprenda

Fake News

Gustavo Mioto

Cifra: Principal (violão e guitarra)
tom: B
[Intro] C#m  F#  B6(9)  E
        C#m  F#  B6(9)

E|------------------------------------------|
B|-2-4-4h5--5-4-2------2-2/4--4-2-2h4-0-----|
G|----------x------3-4----------------------|
D|----------x-------------------------------|
A|----------x-------------------------------|
E|------------------------------------------|

                            H.N.
E|---------------------------7--------------|
B|-2-4-4h5--5-4-2--2p0---------7------------|
G|----------x----------3-4~-----------------|
D|----------x-------------------------------|
A|----------x-------------------------------|
E|------------------------------------------|

[Primeira Parte]

B9
    Se a cidade falar
     E                    B9
Que me viu sofrendo é mentira 

Não acredita 
                     E                  B9
Se o povo falou que me viu chorando mentiu 

É fake news 

[Pré-Refrão]

   E                  
Cê acha que eu tenho cara
 F#                         D#m7
De alguém que sofre por alguém
                 G#m
Que não tem coração, se acha não
   E 
Cê acha que pra te esquecer
    F#                   D#m7
Tô tendo que usar medicação
          G#m
Cê tem razão 

[Refrão]

         E          F#
Te esquecer, eu tentei 
                 D#m7
Tá escrito nesse olho inchado
                G#m
Que eu não superei 
         E           F#
Se eu pudesse, eu lavava 
               D#m7
Você da minha vida
                     G#m
Mas amor não sai com água

         E          F#
Te esquecer, eu tentei 
                 D#m7
Tá escrito nesse olho inchado
                G#m
Que eu não superei 
         E           F#
Se eu pudesse, eu lavava 
               D#m7
Você da minha vida
                     G#m
Mas amor não sai com água

( E  F#  D#m7  G#m )
( E  F#  D#m7  G#m )

[Solo]

                    E          F#
E|------------------------------------------|
B|--5h4---5h4---5h4-------------------------|
G|------4-----4-----4------6/8-6------------|
D|------------------------------------------|
A|------------------------------------------|
E|------------------------------------------|
                   D#m7       G#m
E|------------------------------------------|
B|--5h4---5h4---5h4-------------------------|
G|------4-----4-----3-----------------------|
D|----------------------------4/6-----------|
A|------------------------------------------|
E|------------------------------------------|
                    E          F#
E|------------------------------------------|
B|--5h4---5h4---5h4-------------------------|
G|------4-----4-----4------6/8-6------------|
D|------------------------------------------|
A|------------------------------------------|
E|------------------------------------------|
                   D#m7          G#m
E|------------------------------------------|
B|--5h4---5h4---5h4-------------------------|
G|------4-----4-----3------4h3--------------|
D|-----------------------------4-4/6--------|
A|------------------------------------------|
E|------------------------------------------|

[Pré-Refrão]

   E                  
Cê acha que eu tenho cara
 F#                         D#m7
De alguém que sofre por alguém
                 G#m
Que não tem coração, se acha não
   E 
Cê acha que pra te esquecer
    F#                   D#m7
Tô tendo que usar medicação
          G#m
Cê tem razão 

[Refrão]

         E          F#
Te esquecer, eu tentei 
                 D#m7
Tá escrito nesse olho inchado
                G#m
Que eu não superei 
         E           F#
Se eu pudesse, eu lavava 
               D#m7
Você da minha vida
                     G#m
Mas amor não sai com água

         E          F#
Te esquecer, eu tentei 
                 D#m7
Tá escrito nesse olho inchado
                G#m
Que eu não superei 
         E           F#
Se eu pudesse, eu lavava 
               D#m7
Você da minha vida
                     G#m
Mas amor não sai com água

[Final] E  F#  D#m7  G#m  E
Composição de Gustavo Mioto / LARI FERREIRA / Rafa Borges
Colaboração e revisão:
  • Gabriel Silva
  • Guilherme Ribeiro
  • Thiago Almeida
187.975 exibições
    • ½ Tom
    • A
    • Bb
    • B
    • C
    • Db
    • D
    • Eb
    • E
    • F
    • F#
    • G
    • Ab
  • Adicionar à lista

    0 comentários

    Ver todos os comentários

    Conseguiu tocar?

    27 Tocaram 35 Ainda não

    Grave um vídeo tocando Fake News e nos envie!

    00:00 / 00:00
    outros vídeos desta música
    repetir qualidade Automático
    Outros vídeos desta música
    00:00 / 00:00
    Automático

    Cifra Club Pro

    Aproveite o Cifra Club com benefícios exclusivos e sem anúncios
    Cifra Club Pro
    Aproveite o Cifra Club com benefícios exclusivos e sem anúncios
    OK